  0
SECTION
  2
HEADER
  9
$ACADVER
  1
AC1014
999
I-DEAS 11 NX Not Encoded
  9
$EXTMIN
 10
0.0
 20
0.0
  9
$EXTMAX
 10
5.94E+002
 20
4.2E+002
  9
$TEXTSIZE
 40
1.25E-001
  9
$LTSCALE
 40
1.0
  9
$CLAYER
  8
104
  9
$CECOLOR
 62
40
  9
$DIMASZ
 40
1.25E-001
  9
$DIMEXO
 40
6.25E-002
  9
$DIMDLI
 40
2.5E-001
  9
$DIMEXE
 40
1.25E-001
  9
$DIMTP
 40
5.0E-003
  9
$DIMTM
 40
-5.0E-003
  9
$DIMTXT
 40
3.0
  9
$DIMLIM
 70
0
  9
$DIMTIH
 70
1
  9
$DIMTOH
 70
1
  9
$DIMSE1
 70
0
  9
$DIMSE2
 70
0
  9
$DIMTAD
 70
0
  9
$DIMASO
 70
1
  9
$DIMALT
 70
0
  9
$DIMALTD
 70
0
  9
$DIMTOFL
 70
1
  9
$DIMTIX
 70
0
  9
$DIMSAH
 70
0
  9
$DIMTFAC
 40
1.0
  9
$DIMGAP
 40
6.25E-002
  9
$LUNITS
 70
2
  9
$LUPREC
 70
3
  9
$FILLETRAD
 40
2.0
  9
$AUNITS
 70
0
  9
$AUPREC
 70
1
  9
$CHAMFERA
 40
1.0E+001
  9
$CHAMFERB
 40
1.0E+001
  9
$ANGBASE
 50
0.0
  9
$ANGDIR
 70
0
  9
$PEXTMIN
 10
0.0
 20
0.0
 30
0.0
  9
$PEXTMAX
 10
5.94E+002
 20
4.2E+002
 30
0.0
  9
$PLIMMIN
 10
0.0
 20
0.0
  9
$PLIMMAX
 10
5.94E+002
 20
4.2E+002
  9
$PDMODE
 70
2
  9
$PDSIZE
 40
-1.0E-002
  9
$SPLINETYPE
 70
6
  9
$TILEMODE
 70
0
  9
$HANDLING
 70
1
  9
$HANDSEED
  5
f4240
  0
ENDSEC
  0
SECTION
  2
TABLES
  0
TABLE
  2
VPORT
  5
64
100
AcDbSymbolTable
 70
2
  0
VPORT
  5
65
100
AcDbSymbolTableRecord
100
AcDbViewportTableRecord
  2
*Active
 70
0
 10
0.0
 20
0.0
 11
5.94E+002
 21
4.2E+002
 12
2.97E+002
 22
2.1E+002
 13
0.0
 23
0.0
 14
1.0
 24
1.0
 15
0.0
 25
0.0
 16
0.0
 26
0.0
 36
1.0
 17
0.0
 27
0.0
 37
0.0
 40
4.2E+002
 41
1.4142857
 42
5.0E+001
 43
0.0
 44
0.0
 50
0.0
 51
0.0
 71
0
 72
1000
 73
1
 74
3
 75
0
 76
0
 77
0
 78
0
  0
ENDTAB
  0
TABLE
  2
LTYPE
  5
66
100
AcDbSymbolTable
 70
7
  0
LTYPE
  5
67
100
AcDbSymbolTableRecord
100
AcDbLinetypeTableRecord
  2
BYBLOCK
 70
0
  3

 72
65
 73
0
 40
0.0
  0
LTYPE
  5
68
100
AcDbSymbolTableRecord
100
AcDbLinetypeTableRecord
  2
BYLAYER
 70
0
  3

 72
65
 73
0
 40
0.0
  0
LTYPE
  5
69
100
AcDbSymbolTableRecord
100
AcDbLinetypeTableRecord
  2
CONTINUOUS
 70
0
  3

 72
65
 73
0
 40
0.0
  0
LTYPE
  5
6a
100
AcDbSymbolTableRecord
100
AcDbLinetypeTableRecord
  2
HIDDENNEW0
  3
_ 
 70
64
 72
65
 73
3
 40
4.5
 49
1.5
 74
0
 49
-1.5
 74
0
 49
1.5
 74
0
  0
LTYPE
  5
6b
100
AcDbSymbolTableRecord
100
AcDbLinetypeTableRecord
  2
HIDDENNEW1
  3
_ 
 70
64
 72
65
 73
3
 40
4.5
 49
1.5
 74
0
 49
-1.5
 74
0
 49
1.5
 74
0
  0
LTYPE
  5
6c
100
AcDbSymbolTableRecord
100
AcDbLinetypeTableRecord
  2
HIDDEN
  3
_ 
 70
64
 72
65
 73
3
 40
4.5
 49
1.5
 74
0
 49
-1.5
 74
0
 49
1.5
 74
0
  0
LTYPE
  5
6d
100
AcDbSymbolTableRecord
100
AcDbLinetypeTableRecord
  2
CENTERLINE
  3
_ 
 70
64
 72
65
 73
5
 40
3.0E+001
 49
1.2E+001
 74
0
 49
-1.5
 74
0
 49
3.0
 74
0
 49
-1.5
 74
0
 49
1.2E+001
 74
0
  0
LTYPE
  5
6e
100
AcDbSymbolTableRecord
100
AcDbLinetypeTableRecord
  2
PHANTOM
  3
_ 
 70
64
 72
65
 73
7
 40
2.95E+001
 49
9.5
 74
0
 49
-1.5
 74
0
 49
3.0
 74
0
 49
-1.5
 74
0
 49
3.0
 74
0
 49
-1.5
 74
0
 49
9.5
 74
0
  0
LTYPE
  5
6f
100
AcDbSymbolTableRecord
100
AcDbLinetypeTableRecord
  2
SHORT_DASH
  3
_ 
 70
64
 72
65
 73
3
 40
3.0
 49
7.5E-001
 74
0
 49
-1.5
 74
0
 49
7.5E-001
 74
0
  0
LTYPE
  5
70
100
AcDbSymbolTableRecord
100
AcDbLinetypeTableRecord
  2
LONG_DASH
  3
_ 
 70
64
 72
65
 73
3
 40
9.0
 49
2.25
 74
0
 49
-4.5
 74
0
 49
2.25
 74
0
  0
ENDTAB
  0
TABLE
  2
LAYER
  5
71
100
AcDbSymbolTable
 70
258
  0
LAYER
  5
72
100
AcDbSymbolTableRecord
100
AcDbLayerTableRecord
  2
0
 70
0
 62
7
  6
CONTINUOUS
  0
LAYER
  5
73
100
AcDbSymbolTableRecord
100
AcDbLayerTableRecord
  2
1
 70
0
 62
7
  6
CONTINUOUS
  0
LAYER
  5
74
100
AcDbSymbolTableRecord
100
AcDbLayerTableRecord
  2
2
 70
0
 62
7
  6
CONTINUOUS
  0
LAYER
  5
75
100
AcDbSymbolTableRecord
100
AcDbLayerTableRecord
  2
Drafting_Hidden_Entities
 70
1
 62
7
  6
CONTINUOUS
  0
ENDTAB
  0
TABLE
  2
STYLE
  5
76
100
AcDbSymbolTable
 70
1
  0
STYLE
  5
77
100
AcDbSymbolTableRecord
100
AcDbTextStyleTableRecord
  2
STANDARD
 70
64
 40
0.0
 41
1.0
 50
0.0
 71
0
 42
1.0
  3
monotxt.shx
  4

  0
ENDTAB
  0
TABLE
  2
VIEW
  5
78
100
AcDbSymbolTable
 70
0
  0
ENDTAB
  0
TABLE
  2
UCS
  5
79
100
AcDbSymbolTable
 70
0
  0
ENDTAB
  0
TABLE
  2
APPID
  5
7a
100
AcDbSymbolTable
 70
1
  0
APPID
  5
7b
100
AcDbSymbolTableRecord
100
AcDbRegAppTableRecord
  2
ACAD
 70
1
  0
ENDTAB
  0
TABLE
  2
DIMSTYLE
  5
7c
100
AcDbSymbolTable
 70
0
  0
ENDTAB
  0
TABLE
  2
BLOCK_RECORD
  5
7d
100
AcDbSymbolTable
 70
0
  0
BLOCK_RECORD
  5
7e
100
AcDbSymbolTableRecord
100
AcDbBlockTableRecord
  2
*MODEL_SPACE
  0
BLOCK_RECORD
  5
7f
100
AcDbSymbolTableRecord
100
AcDbBlockTableRecord
  2
*PAPER_SPACE
  0
BLOCK_RECORD
  5
80
100
AcDbSymbolTableRecord
100
AcDbBlockTableRecord
  2
_AH1
  0
BLOCK_RECORD
  5
81
100
AcDbSymbolTableRecord
100
AcDbBlockTableRecord
  2
_AH2
  0
BLOCK_RECORD
  5
82
100
AcDbSymbolTableRecord
100
AcDbBlockTableRecord
  2
_AH12
  3
_AH
  0
BLOCK_RECORD
  5
83
100
AcDbSymbolTableRecord
100
AcDbBlockTableRecord
  2
_AH13
  3
_AH
  0
BLOCK_RECORD
  5
84
100
AcDbSymbolTableRecord
100
AcDbBlockTableRecord
  2
_AH14
  3
_AH
  0
BLOCK_RECORD
  5
85
100
AcDbSymbolTableRecord
100
AcDbBlockTableRecord
  2
_AH15
  3
_AH
  0
BLOCK_RECORD
  5
86
100
AcDbSymbolTableRecord
100
AcDbBlockTableRecord
  2
_AH16
  3
_AH
  0
BLOCK_RECORD
  5
87
100
AcDbSymbolTableRecord
100
AcDbBlockTableRecord
  2
_AH17
  3
_AH
  0
BLOCK_RECORD
  5
88
100
AcDbSymbolTableRecord
100
AcDbBlockTableRecord
  2
_AH18
  3
_AH
  0
BLOCK_RECORD
  5
89
100
AcDbSymbolTableRecord
100
AcDbBlockTableRecord
  2
_AH19
  3
_AH
  0
BLOCK_RECORD
  5
8a
100
AcDbSymbolTableRecord
100
AcDbBlockTableRecord
  2
_AH20
  3
_AH
  0
BLOCK_RECORD
  5
8b
100
AcDbSymbolTableRecord
100
AcDbBlockTableRecord
  2
_AH21
  3
_AH
  0
ENDTAB
  0
ENDSEC
  0
SECTION
  2
BLOCKS
  0
BLOCK
  5
8c
100
AcDbEntity
100
AcDbBlockBegin
  2
*MODEL_SPACE
 70
0
 10
0.0
 20
0.0
 30
0.0
  3
*MODEL_SPACE
  1

  0
ENDBLK
  5
8d
100
AcDbEntity
100
AcDbBlockEnd
  0
BLOCK
  5
8e
100
AcDbEntity
100
AcDbBlockBegin
  2
*PAPER_SPACE
 70
0
 10
0.0
 20
0.0
 30
0.0
  3
*PAPER_SPACE
  1

  0
ENDBLK
  5
8f
100
AcDbEntity
100
AcDbBlockEnd
  0
BLOCK
  5
90
100
AcDbEntity
100
AcDbBlockBegin
  2
_AH12
  3
_AH
 10
0.0
 20
0.0
 70
64
  0
LINE
  5
91
100
AcDbEntity
  8
0
100
AcDbLine
  6
CONTINUOUS
 62
0
 10
0.0
 20
0.0
 11
1.0
 21
0.0
  0
LINE
  5
92
100
AcDbEntity
  8
0
100
AcDbLine
  6
CONTINUOUS
 62
0
 10
0.0
 20
0.0
 11
-1.0
 21
0.0
  0
ENDBLK
  5
93
100
AcDbEntity
100
AcDbBlockEnd
  0
BLOCK
  5
94
100
AcDbEntity
100
AcDbBlockBegin
  2
_AH13
  3
_AH
 10
0.0
 20
0.0
 70
64
  0
SOLID
  5
95
100
AcDbEntity
  8
0
100
AcDbTrace
  6
CONTINUOUS
 62
0
 10
0.0
 20
0.0
 11
1.0
 21
-1.66667E-001
 12
1.0
 22
1.66667E-001
 13
0.0
 23
0.0
  0
ENDBLK
  5
96
100
AcDbEntity
100
AcDbBlockEnd
  0
BLOCK
  5
97
100
AcDbEntity
100
AcDbBlockBegin
  2
_AH14
  3
_AH
 10
0.0
 20
0.0
 70
64
  0
ENDBLK
  5
98
100
AcDbEntity
100
AcDbBlockEnd
  0
BLOCK
  5
99
100
AcDbEntity
100
AcDbBlockBegin
  2
_AH15
  3
_AH
 10
0.0
 20
0.0
 70
64
  0
CIRCLE
  5
9a
100
AcDbEntity
  8
0
100
AcDbCircle
  6
CONTINUOUS
 62
0
 10
0.0
 20
0.0
 40
1.66667E-001
  0
LINE
  5
9b
100
AcDbEntity
  8
0
100
AcDbLine
  6
CONTINUOUS
 62
0
 10
0.0
 20
0.0
 11
-1.0
 21
0.0
  0
ENDBLK
  5
9c
100
AcDbEntity
100
AcDbBlockEnd
  0
BLOCK
  5
9d
100
AcDbEntity
100
AcDbBlockBegin
  2
_AH16
  3
_AH
 10
0.0
 20
0.0
 70
64
  0
POLYLINE
  5
9e
100
AcDbEntity
  8
0
100
AcDb2dPolyline
  6
CONTINUOUS
 62
0
 66
1
 40
1.66667E-001
 41
1.66667E-001
 70
0
  0
VERTEX
  5
9f
100
AcDbEntity
  8
0
100
AcDbVertex
100
AcDb2dVertex
 42
1.0
 10
8.3335E-002
 20
0.0
 70
0
  0
VERTEX
  5
a0
100
AcDbEntity
  8
0
100
AcDbVertex
100
AcDb2dVertex
 42
1.0
 10
-8.3335E-002
 20
0.0
 70
0
  0
VERTEX
  5
a1
100
AcDbEntity
  8
0
100
AcDbVertex
100
AcDb2dVertex
 42
0.0
 10
8.3335E-002
 20
0.0
 70
0
  0
SEQEND
  5
a2
100
AcDbEntity
  0
LINE
  5
a3
100
AcDbEntity
  8
0
100
AcDbLine
  6
CONTINUOUS
 62
0
 10
0.0
 20
0.0
 11
-1.0
 21
0.0
  0
ENDBLK
  5
a4
100
AcDbEntity
100
AcDbBlockEnd
  0
BLOCK
  5
a5
100
AcDbEntity
100
AcDbBlockBegin
  2
_AH17
  3
_AH
 10
0.0
 20
0.0
 70
64
  0
LINE
  5
a6
100
AcDbEntity
  8
0
100
AcDbLine
  6
CONTINUOUS
 62
0
 10
-1.66667E-001
 20
-1.66667E-001
 11
1.66667E-001
 21
-1.66667E-001
  0
LINE
  5
a7
100
AcDbEntity
  8
0
100
AcDbLine
  6
CONTINUOUS
 62
0
 10
1.66667E-001
 20
-1.66667E-001
 11
1.66667E-001
 21
1.66667E-001
  0
LINE
  5
a8
100
AcDbEntity
  8
0
100
AcDbLine
  6
CONTINUOUS
 62
0
 10
1.66667E-001
 20
1.66667E-001
 11
-1.66667E-001
 21
1.66667E-001
  0
LINE
  5
a9
100
AcDbEntity
  8
0
100
AcDbLine
  6
CONTINUOUS
 62
0
 10
-1.66667E-001
 20
1.66667E-001
 11
-1.66667E-001
 21
-1.66667E-001
  0
LINE
  5
aa
100
AcDbEntity
  8
0
100
AcDbLine
  6
CONTINUOUS
 62
0
 10
0.0
 20
0.0
 11
-1.0
 21
0.0
  0
ENDBLK
  5
ab
100
AcDbEntity
100
AcDbBlockEnd
  0
BLOCK
  5
ac
100
AcDbEntity
100
AcDbBlockBegin
  2
_AH18
  3
_AH
 10
0.0
 20
0.0
 70
64
  0
SOLID
  5
ad
100
AcDbEntity
  8
0
100
AcDbTrace
  6
CONTINUOUS
 62
0
 10
-1.66667E-001
 20
-1.66667E-001
 11
1.66667E-001
 21
-1.66667E-001
 12
-1.66667E-001
 22
1.66667E-001
 13
1.66667E-001
 23
1.66667E-001
  0
LINE
  5
ae
100
AcDbEntity
  8
0
100
AcDbLine
  6
CONTINUOUS
 62
0
 10
0.0
 20
0.0
 11
-1.0
 21
0.0
  0
ENDBLK
  5
af
100
AcDbEntity
100
AcDbBlockEnd
  0
BLOCK
  5
b0
100
AcDbEntity
100
AcDbBlockBegin
  2
_AH19
  3
_AH
 10
0.0
 20
0.0
 70
64
  0
LINE
  5
b1
100
AcDbEntity
  8
0
100
AcDbLine
  6
CONTINUOUS
 62
0
 10
-5.0E-001
 20
-5.0E-001
 11
5.0E-001
 21
5.0E-001
  0
LINE
  5
b2
100
AcDbEntity
  8
0
100
AcDbLine
  6
CONTINUOUS
 62
0
 10
0.0
 20
0.0
 11
-1.0
 21
0.0
  0
ENDBLK
  5
b3
100
AcDbEntity
100
AcDbBlockEnd
  0
BLOCK
  5
b4
100
AcDbEntity
100
AcDbBlockBegin
  2
_AH20
  3
_AH
 10
0.0
 20
0.0
 70
64
  0
POLYLINE
  5
b5
100
AcDbEntity
  8
0
100
AcDb2dPolyline
  6
CONTINUOUS
 62
0
 66
1
 40
5.0E-001
 41
5.0E-001
 70
0
  0
VERTEX
  5
b6
100
AcDbEntity
  8
0
100
AcDbVertex
100
AcDb2dVertex
 42
4.1421356E-001
 10
-1.66667E-001
 20
-1.66667E-001
 70
0
  0
VERTEX
  5
b7
100
AcDbEntity
  8
0
100
AcDbVertex
100
AcDb2dVertex
 42
0.0
 10
0.0
 20
0.0
 70
0
  0
SEQEND
  5
b8
100
AcDbEntity
  0
POLYLINE
  5
b9
100
AcDbEntity
  8
0
100
AcDb2dPolyline
  6
CONTINUOUS
 62
0
 66
1
 40
5.0E-001
 41
5.0E-001
 70
0
  0
VERTEX
  5
ba
100
AcDbEntity
  8
0
100
AcDbVertex
100
AcDb2dVertex
 42
4.1421356E-001
 10
1.66667E-001
 20
1.66667E-001
 70
0
  0
VERTEX
  5
bb
100
AcDbEntity
  8
0
100
AcDbVertex
100
AcDb2dVertex
 42
0.0
 10
0.0
 20
0.0
 70
0
  0
SEQEND
  5
bc
100
AcDbEntity
  0
LINE
  5
bd
100
AcDbEntity
  8
0
100
AcDbLine
  6
CONTINUOUS
 62
0
 10
0.0
 20
0.0
 11
-1.0
 21
0.0
  0
ENDBLK
  5
be
100
AcDbEntity
100
AcDbBlockEnd
  0
BLOCK
  5
bf
100
AcDbEntity
100
AcDbBlockBegin
  2
_AH21
  3
_AH
 10
0.0
 20
0.0
 70
64
  0
LINE
  5
c0
100
AcDbEntity
  8
0
100
AcDbLine
  6
CONTINUOUS
 62
0
 10
0.0
 20
0.0
 11
-1.0
 21
-1.66667E-001
  0
LINE
  5
c1
100
AcDbEntity
  8
0
100
AcDbLine
  6
CONTINUOUS
 62
0
 10
-1.0
 20
-1.66667E-001
 11
-1.0
 21
1.66667E-001
  0
LINE
  5
c2
100
AcDbEntity
  8
0
100
AcDbLine
  6
CONTINUOUS
 62
0
 10
-1.0
 20
1.66667E-001
 11
0.0
 21
0.0
  0
ENDBLK
  5
c3
100
AcDbEntity
100
AcDbBlockEnd
  0
BLOCK
  5
c4
100
AcDbEntity
100
AcDbBlockBegin
  2
_AH1
 70
0
 10
0.0
 20
0.0
  3
_AH1
  0
LINE
  5
c5
100
AcDbEntity
  8
0
100
AcDbLine
  6
CONTINUOUS
 62
0
 10
-1.0
 20
1.66667E-001
 11
0.0
 21
0.0
  0
LINE
  5
c6
100
AcDbEntity
  8
0
100
AcDbLine
  6
CONTINUOUS
 62
0
 10
0.0
 20
0.0
 11
-1.0
 21
-1.66667E-001
  0
LINE
  5
c7
100
AcDbEntity
  8
0
100
AcDbLine
  6
CONTINUOUS
 62
0
 10
-1.0
 20
1.66667E-001
 11
-1.0
 21
-1.66667E-001
  0
LINE
  5
c8
100
AcDbEntity
  8
0
100
AcDbLine
  6
CONTINUOUS
 62
0
 10
0.0
 20
0.0
 11
-1.0
 21
0.0
  0
ENDBLK
  5
c9
100
AcDbEntity
100
AcDbBlockEnd
  0
BLOCK
  5
ca
100
AcDbEntity
100
AcDbBlockBegin
  2
_AH2
 70
0
 10
0.0
 20
0.0
  3
_AH2
  0
LINE
  5
cb
100
AcDbEntity
  8
0
100
AcDbLine
  6
CONTINUOUS
 62
0
 10
-1.0
 20
1.66667E-001
 11
0.0
 21
0.0
  0
LINE
  5
cc
100
AcDbEntity
  8
0
100
AcDbLine
  6
CONTINUOUS
 62
0
 10
0.0
 20
0.0
 11
-1.0
 21
-1.66667E-001
  0
LINE
  5
cd
100
AcDbEntity
  8
0
100
AcDbLine
  6
CONTINUOUS
 62
0
 10
0.0
 20
0.0
 11
-1.0
 21
0.0
  0
ENDBLK
  5
ce
100
AcDbEntity
100
AcDbBlockEnd
  0
ENDSEC
  0
SECTION
  2
ENTITIES
  0
TEXT
  5
cf
100
AcDbEntity
  8
1
100
AcDbText
  6
CONTINUOUS
 62
7
 10
1.2
 20
1.2
 40
1.0
  1
2-MFORM_DATABASE
 41
3.0
 50
1.0
100
AcDbText
  0
TEXT
  5
d0
100
AcDbEntity
  8
1
100
AcDbText
  6
CONTINUOUS
 62
40
 10
4.7604861E+002
 20
3.4914864E+001
 40
7.0
  1
BTS75V-Klemmbefestigung
 41
6.5892857E-001
 72
1
 11
5.2909236E+002
 21
3.8414864E+001
100
AcDbText
 73
2
  0
LINE
  5
d1
100
AcDbEntity
  8
1
100
AcDbLine
  6
CENTERLINE
 62
1
 10
1.2265958E+002
 20
3.9557865E+002
 11
1.2339328E+002
 21
4.0957865E+002
  0
LINE
  5
d2
100
AcDbEntity
  8
1
100
AcDbLine
  6
CENTERLINE
 62
1
 10
1.2339328E+002
 20
4.0957865E+002
 11
1.4472586E+002
 21
4.0957865E+002
  0
LINE
  5
d3
100
AcDbEntity
  8
1
100
AcDbLine
  6
CENTERLINE
 62
1
 10
1.4472586E+002
 20
4.0957865E+002
 11
1.4545956E+002
 21
3.9557869E+002
  0
LINE
  5
d4
100
AcDbEntity
  8
1
100
AcDbLine
  6
CENTERLINE
 62
1
 10
1.4272311E+002
 20
4.0957865E+002
 11
1.4345682E+002
 21
3.9557869E+002
  0
LINE
  5
d5
100
AcDbEntity
  8
1
100
AcDbLine
  6
CENTERLINE
 62
1
 10
1.2539603E+002
 20
4.0957865E+002
 11
1.2466232E+002
 21
3.9557869E+002
  0
LINE
  5
d6
100
AcDbEntity
  8
1
100
AcDbLine
  6
CENTERLINE
 62
1
 10
1.2680957E+002
 20
3.9257871E+002
 11
1.2807446E+002
 21
3.8357869E+002
  0
LINE
  5
d7
100
AcDbEntity
  8
1
100
AcDbLine
  6
CENTERLINE
 62
1
 10
1.2807446E+002
 20
3.8357869E+002
 11
1.4004471E+002
 21
3.8357869E+002
  0
LINE
  5
d8
100
AcDbEntity
  8
1
100
AcDbLine
  6
CENTERLINE
 62
1
 10
1.4004471E+002
 20
3.8357869E+002
 11
1.4130957E+002
 21
3.9257871E+002
  0
LINE
  5
d9
100
AcDbEntity
  8
1
100
AcDbLine
  6
CENTERLINE
 62
1
 10
1.4655957E+002
 20
3.9257869E+002
 11
1.2155957E+002
 21
3.9257869E+002
  0
LINE
  5
da
100
AcDbEntity
  8
1
100
AcDbLine
  6
CENTERLINE
 62
1
 10
1.2155957E+002
 20
3.9257869E+002
 11
1.2155957E+002
 21
3.9557869E+002
  0
LINE
  5
db
100
AcDbEntity
  8
1
100
AcDbLine
  6
CENTERLINE
 62
1
 10
1.2155957E+002
 20
3.9557869E+002
 11
1.4655957E+002
 21
3.9557869E+002
  0
LINE
  5
dc
100
AcDbEntity
  8
1
100
AcDbLine
  6
CENTERLINE
 62
1
 10
1.4655957E+002
 20
3.9557869E+002
 11
1.4655957E+002
 21
3.9257869E+002
  0
LINE
  5
dd
100
AcDbEntity
  8
1
100
AcDbLine
  6
CENTERLINE
 62
1
 10
1.3405957E+002
 20
3.8006416E+002
 11
1.3405957E+002
 21
4.1225532E+002
  0
LINE
  5
de
100
AcDbEntity
  8
1
100
AcDbLine
  6
CENTERLINE
 62
1
 10
1.7407884E+002
 20
2.8082639E+002
 11
1.7407884E+002
 21
2.6861786E+002
  0
LINE
  5
df
100
AcDbEntity
  8
1
100
AcDbLine
  6
CONTINUOUS
 62
1
 10
1.7187884E+002
 20
2.7082622E+002
 11
1.7187884E+002
 21
2.7579882E+002
  0
LINE
  5
e0
100
AcDbEntity
  8
1
100
AcDbLine
  6
CONTINUOUS
 62
1
 10
1.7627884E+002
 20
2.7082621E+002
 11
1.7627884E+002
 21
2.7579882E+002
  0
LINE
  5
e1
100
AcDbEntity
  8
1
100
AcDbLine
  6
CONTINUOUS
 62
40
 10
1.7860923E+002
 20
2.7082624E+002
 11
1.7107884E+002
 21
2.7082621E+002
  0
LINE
  5
e2
100
AcDbEntity
  8
1
100
AcDbLine
  6
CONTINUOUS
 62
40
 10
1.7119209E+002
 20
2.7859882E+002
 11
1.7119209E+002
 21
2.7579882E+002
  0
LINE
  5
e3
100
AcDbEntity
  8
1
100
AcDbLine
  6
CONTINUOUS
 62
40
 10
1.7695378E+002
 20
2.7579882E+002
 11
1.7695378E+002
 21
2.7858291E+002
  0
LINE
  5
e4
100
AcDbEntity
  8
1
100
AcDbLine
  6
CONTINUOUS
 62
40
 10
1.7107884E+002
 20
2.7579882E+002
 11
1.7707884E+002
 21
2.7579882E+002
  0
LINE
  5
e5
100
AcDbEntity
  8
1
100
AcDbLine
  6
CONTINUOUS
 62
40
 10
1.7107884E+002
 20
2.7082622E+002
 11
1.7107884E+002
 21
2.7579882E+002
  0
LINE
  5
e6
100
AcDbEntity
  8
1
100
AcDbLine
  6
CONTINUOUS
 62
40
 10
1.7107884E+002
 20
2.7579882E+002
 11
1.6976004E+002
 21
2.7579882E+002
  0
LINE
  5
e7
100
AcDbEntity
  8
1
100
AcDbLine
  6
CONTINUOUS
 62
40
 10
1.6976004E+002
 20
2.7579882E+002
 11
1.6880534E+002
 21
2.7579882E+002
  0
ARC
  5
e8
100
AcDbEntity
  8
1
100
AcDbCircle
  6
CONTINUOUS
 62
40
 10
1.6880534E+002
 20
2.7629882E+002
 40
5.0000014E-001
100
AcDbArc
 50
1.8000002E+002
 51
2.6999998E+002
  0
LINE
  5
e9
100
AcDbEntity
  8
1
100
AcDbLine
  6
CONTINUOUS
 62
40
 10
1.6830534E+002
 20
2.7629882E+002
 11
1.6830534E+002
 21
2.7861363E+002
  0
ARC
  5
ea
100
AcDbEntity
  8
1
100
AcDbCircle
  6
CONTINUOUS
 62
40
 10
1.6974153E+002
 20
2.7745489E+002
 40
1.8453474
100
AcDbArc
 50
8.9696631E+001
 51
1.4110287E+002
  0
ARC
  5
eb
100
AcDbEntity
  8
1
100
AcDbCircle
  6
CONTINUOUS
 62
40
 10
1.697415E+002
 20
2.7744955E+002
 40
1.8506859
100
AcDbArc
 50
3.8388943E+001
 51
8.9696665E+001
  0
ARC
  5
ec
100
AcDbEntity
  8
1
100
AcDbCircle
  6
CONTINUOUS
 62
40
 10
1.7404488E+002
 20
2.7336995E+002
 40
5.9564689
100
AcDbArc
 50
8.9737661E+001
 51
1.186162E+002
  0
ARC
  5
ed
100
AcDbEntity
  8
1
100
AcDbCircle
  6
CONTINUOUS
 62
40
 10
1.7404445E+002
 20
2.7326257E+002
 40
6.063849
100
AcDbArc
 50
6.1201441E+001
 51
8.9738168E+001
  0
LINE
  5
ee
100
AcDbEntity
  8
1
100
AcDbLine
  6
CONTINUOUS
 62
40
 10
1.7696559E+002
 20
2.7857644E+002
 11
1.7696559E+002
 21
2.7861363E+002
  0
ARC
  5
ef
100
AcDbEntity
  8
1
100
AcDbCircle
  6
CONTINUOUS
 62
40
 10
1.7840559E+002
 20
2.7745221E+002
 40
1.8499999
100
AcDbArc
 50
3.8553365E+001
 51
1.4111236E+002
  0
LINE
  5
f0
100
AcDbEntity
  8
1
100
AcDbLine
  6
CONTINUOUS
 62
40
 10
1.7985235E+002
 20
2.7860521E+002
 11
1.7985235E+002
 21
2.7629882E+002
  0
ARC
  5
f1
100
AcDbEntity
  8
1
100
AcDbCircle
  6
CONTINUOUS
 62
40
 10
1.7935235E+002
 20
2.7629882E+002
 40
4.9999965E-001
100
AcDbArc
 50
2.6999996E+002
 51
3.6000004E+002
  0
LINE
  5
f2
100
AcDbEntity
  8
1
100
AcDbLine
  6
CONTINUOUS
 62
40
 10
1.7935235E+002
 20
2.7579882E+002
 11
1.7869764E+002
 21
2.7579882E+002
  0
LINE
  5
f3
100
AcDbEntity
  8
1
100
AcDbLine
  6
CONTINUOUS
 62
40
 10
1.7869764E+002
 20
2.7579882E+002
 11
1.7707884E+002
 21
2.7579882E+002
  0
LINE
  5
f4
100
AcDbEntity
  8
1
100
AcDbLine
  6
CONTINUOUS
 62
40
 10
1.7707884E+002
 20
2.7579882E+002
 11
1.7707884E+002
 21
2.7082622E+002
  0
LINE
  5
f5
100
AcDbEntity
  8
1
100
AcDbLine
  6
CONTINUOUS
 62
1
 10
3.1687883E+002
 20
2.7082625E+002
 11
3.1687883E+002
 21
2.7579876E+002
  0
LINE
  5
f6
100
AcDbEntity
  8
1
100
AcDbLine
  6
CONTINUOUS
 62
1
 10
3.2127883E+002
 20
2.7082625E+002
 11
3.2127883E+002
 21
2.7579876E+002
  0
LINE
  5
f7
100
AcDbEntity
  8
1
100
AcDbLine
  6
CONTINUOUS
 62
40
 10
3.1619208E+002
 20
2.7859876E+002
 11
3.1619208E+002
 21
2.7579876E+002
  0
LINE
  5
f8
100
AcDbEntity
  8
1
100
AcDbLine
  6
CONTINUOUS
 62
40
 10
3.2195376E+002
 20
2.7579876E+002
 11
3.2195376E+002
 21
2.7858284E+002
  0
LINE
  5
f9
100
AcDbEntity
  8
1
100
AcDbLine
  6
CONTINUOUS
 62
40
 10
3.1607883E+002
 20
2.7579876E+002
 11
3.2207883E+002
 21
2.7579876E+002
  0
LINE
  5
fa
100
AcDbEntity
  8
1
100
AcDbLine
  6
CONTINUOUS
 62
40
 10
3.1607883E+002
 20
2.7082625E+002
 11
3.1607883E+002
 21
2.7579876E+002
  0
LINE
  5
fb
100
AcDbEntity
  8
1
100
AcDbLine
  6
CONTINUOUS
 62
40
 10
3.1607883E+002
 20
2.7579876E+002
 11
3.1476003E+002
 21
2.7579876E+002
  0
LINE
  5
fc
100
AcDbEntity
  8
1
100
AcDbLine
  6
CONTINUOUS
 62
40
 10
3.1476003E+002
 20
2.7579876E+002
 11
3.1380533E+002
 21
2.7579876E+002
  0
ARC
  5
fd
100
AcDbEntity
  8
1
100
AcDbCircle
  6
CONTINUOUS
 62
40
 10
3.1380533E+002
 20
2.7629876E+002
 40
4.9999981E-001
100
AcDbArc
 50
1.7999998E+002
 51
2.7000002E+002
  0
LINE
  5
fe
100
AcDbEntity
  8
1
100
AcDbLine
  6
CONTINUOUS
 62
40
 10
3.1330533E+002
 20
2.7629876E+002
 11
3.1330533E+002
 21
2.7861356E+002
  0
ARC
  5
ff
100
AcDbEntity
  8
1
100
AcDbCircle
  6
CONTINUOUS
 62
40
 10
3.1474151E+002
 20
2.7745483E+002
 40
1.8453403
100
AcDbArc
 50
8.9696571E+001
 51
1.4110285E+002
  0
ARC
  5
100
100
AcDbEntity
  8
1
100
AcDbCircle
  6
CONTINUOUS
 62
40
 10
3.1474148E+002
 20
2.7744947E+002
 40
1.8506974
100
AcDbArc
 50
3.8389235E+001
 51
8.9696659E+001
  0
ARC
  5
101
100
AcDbEntity
  8
1
100
AcDbCircle
  6
CONTINUOUS
 62
40
 10
3.1904487E+002
 20
2.7336989E+002
 40
5.9564636
100
AcDbArc
 50
8.9737654E+001
 51
1.1861623E+002
  0
ARC
  5
102
100
AcDbEntity
  8
1
100
AcDbCircle
  6
CONTINUOUS
 62
40
 10
3.1904443E+002
 20
2.7326252E+002
 40
6.0638417
100
AcDbArc
 50
6.1201388E+001
 51
8.9738156E+001
  0
LINE
  5
103
100
AcDbEntity
  8
1
100
AcDbLine
  6
CONTINUOUS
 62
40
 10
3.2196558E+002
 20
2.7857637E+002
 11
3.2196558E+002
 21
2.7861356E+002
  0
ARC
  5
104
100
AcDbEntity
  8
1
100
AcDbCircle
  6
CONTINUOUS
 62
40
 10
3.2340558E+002
 20
2.7745214E+002
 40
1.8500001
100
AcDbArc
 50
3.8553399E+001
 51
1.4111232E+002
  0
LINE
  5
105
100
AcDbEntity
  8
1
100
AcDbLine
  6
CONTINUOUS
 62
40
 10
3.2485233E+002
 20
2.7860514E+002
 11
3.2485233E+002
 21
2.7629876E+002
  0
ARC
  5
106
100
AcDbEntity
  8
1
100
AcDbCircle
  6
CONTINUOUS
 62
40
 10
3.2435233E+002
 20
2.7629876E+002
 40
4.9999983E-001
100
AcDbArc
 50
2.6999998E+002
 51
3.6000002E+002
  0
LINE
  5
107
100
AcDbEntity
  8
1
100
AcDbLine
  6
CONTINUOUS
 62
40
 10
3.2435233E+002
 20
2.7579876E+002
 11
3.2369763E+002
 21
2.7579876E+002
  0
LINE
  5
108
100
AcDbEntity
  8
1
100
AcDbLine
  6
CONTINUOUS
 62
40
 10
3.2369763E+002
 20
2.7579876E+002
 11
3.2207883E+002
 21
2.7579876E+002
  0
LINE
  5
109
100
AcDbEntity
  8
1
100
AcDbLine
  6
CONTINUOUS
 62
40
 10
3.2207883E+002
 20
2.7579876E+002
 11
3.2207883E+002
 21
2.7082625E+002
  0
LINE
  5
10a
100
AcDbEntity
  8
1
100
AcDbLine
  6
CONTINUOUS
 62
1
 10
1.7187884E+002
 20
2.0982617E+002
 11
1.7187884E+002
 21
2.0485374E+002
  0
LINE
  5
10b
100
AcDbEntity
  8
1
100
AcDbLine
  6
CONTINUOUS
 62
1
 10
1.7627884E+002
 20
2.0982617E+002
 11
1.7627884E+002
 21
2.0485374E+002
  0
LINE
  5
10c
100
AcDbEntity
  8
1
100
AcDbLine
  6
CONTINUOUS
 62
40
 10
1.7119209E+002
 20
2.0205374E+002
 11
1.7119209E+002
 21
2.0485374E+002
  0
LINE
  5
10d
100
AcDbEntity
  8
1
100
AcDbLine
  6
CONTINUOUS
 62
40
 10
1.7695378E+002
 20
2.0485374E+002
 11
1.7695378E+002
 21
2.0206966E+002
  0
LINE
  5
10e
100
AcDbEntity
  8
1
100
AcDbLine
  6
CONTINUOUS
 62
40
 10
1.7107884E+002
 20
2.0485374E+002
 11
1.7707884E+002
 21
2.0485374E+002
  0
LINE
  5
10f
100
AcDbEntity
  8
1
100
AcDbLine
  6
CONTINUOUS
 62
40
 10
1.7105956E+002
 20
2.0982617E+002
 11
1.7107884E+002
 21
2.0485374E+002
  0
LINE
  5
110
100
AcDbEntity
  8
1
100
AcDbLine
  6
CONTINUOUS
 62
40
 10
1.7107884E+002
 20
2.0485374E+002
 11
1.6976004E+002
 21
2.0485374E+002
  0
LINE
  5
111
100
AcDbEntity
  8
1
100
AcDbLine
  6
CONTINUOUS
 62
40
 10
1.6976004E+002
 20
2.0485374E+002
 11
1.6880534E+002
 21
2.0485374E+002
  0
ARC
  5
112
100
AcDbEntity
  8
1
100
AcDbCircle
  6
CONTINUOUS
 62
40
 10
1.6880534E+002
 20
2.0435374E+002
 40
5.0000109E-001
100
AcDbArc
 50
9.0000125E+001
 51
1.7999987E+002
  0
LINE
  5
113
100
AcDbEntity
  8
1
100
AcDbLine
  6
CONTINUOUS
 62
40
 10
1.6830534E+002
 20
2.0435374E+002
 11
1.6830534E+002
 21
2.0203893E+002
  0
ARC
  5
114
100
AcDbEntity
  8
1
100
AcDbCircle
  6
CONTINUOUS
 62
40
 10
1.6974152E+002
 20
2.0319767E+002
 40
1.84534
100
AcDbArc
 50
2.1889705E+002
 51
2.7030339E+002
  0
ARC
  5
115
100
AcDbEntity
  8
1
100
AcDbCircle
  6
CONTINUOUS
 62
40
 10
1.6974149E+002
 20
2.0320302E+002
 40
1.8506904
100
AcDbArc
 50
2.7030339E+002
 51
3.21611E+002
  0
ARC
  5
116
100
AcDbEntity
  8
1
100
AcDbCircle
  6
CONTINUOUS
 62
40
 10
1.7404488E+002
 20
2.0728258E+002
 40
5.9564382
100
AcDbArc
 50
2.4138364E+002
 51
2.7026233E+002
  0
ARC
  5
117
100
AcDbEntity
  8
1
100
AcDbCircle
  6
CONTINUOUS
 62
40
 10
1.7404444E+002
 20
2.0738999E+002
 40
6.0638481
100
AcDbArc
 50
2.7026184E+002
 51
2.9879862E+002
  0
LINE
  5
118
100
AcDbEntity
  8
1
100
AcDbLine
  6
CONTINUOUS
 62
40
 10
1.7696559E+002
 20
2.0207613E+002
 11
1.7696559E+002
 21
2.0203893E+002
  0
ARC
  5
119
100
AcDbEntity
  8
1
100
AcDbCircle
  6
CONTINUOUS
 62
40
 10
1.7840559E+002
 20
2.0320036E+002
 40
1.8499997
100
AcDbArc
 50
2.1888772E+002
 51
3.2144663E+002
  0
LINE
  5
11a
100
AcDbEntity
  8
1
100
AcDbLine
  6
CONTINUOUS
 62
40
 10
1.7985234E+002
 20
2.0204736E+002
 11
1.7985234E+002
 21
2.0435374E+002
  0
ARC
  5
11b
100
AcDbEntity
  8
1
100
AcDbCircle
  6
CONTINUOUS
 62
40
 10
1.7935234E+002
 20
2.0435374E+002
 40
5.0000413E-001
100
AcDbArc
 50
4.73318E-004
 51
8.9999527E+001
  0
LINE
  5
11c
100
AcDbEntity
  8
1
100
AcDbLine
  6
CONTINUOUS
 62
40
 10
1.7935234E+002
 20
2.0485374E+002
 11
1.7869764E+002
 21
2.0485374E+002
  0
LINE
  5
11d
100
AcDbEntity
  8
1
100
AcDbLine
  6
CONTINUOUS
 62
40
 10
1.7869764E+002
 20
2.0485374E+002
 11
1.7707884E+002
 21
2.0485374E+002
  0
LINE
  5
11e
100
AcDbEntity
  8
1
100
AcDbLine
  6
CONTINUOUS
 62
40
 10
1.7707884E+002
 20
2.0485374E+002
 11
1.7707884E+002
 21
2.0982617E+002
  0
LINE
  5
11f
100
AcDbEntity
  8
1
100
AcDbLine
  6
CONTINUOUS
 62
1
 10
3.1690026E+002
 20
2.098262E+002
 11
3.1690026E+002
 21
2.0485381E+002
  0
LINE
  5
120
100
AcDbEntity
  8
1
100
AcDbLine
  6
CONTINUOUS
 62
1
 10
3.2130026E+002
 20
2.098262E+002
 11
3.2130026E+002
 21
2.0485381E+002
  0
LINE
  5
121
100
AcDbEntity
  8
1
100
AcDbLine
  6
CONTINUOUS
 62
40
 10
3.1621351E+002
 20
2.0205381E+002
 11
3.1621351E+002
 21
2.0485381E+002
  0
LINE
  5
122
100
AcDbEntity
  8
1
100
AcDbLine
  6
CONTINUOUS
 62
40
 10
3.2197519E+002
 20
2.0485381E+002
 11
3.2197519E+002
 21
2.0206973E+002
  0
LINE
  5
123
100
AcDbEntity
  8
1
100
AcDbLine
  6
CONTINUOUS
 62
40
 10
3.1610026E+002
 20
2.0485381E+002
 11
3.2210026E+002
 21
2.0485381E+002
  0
LINE
  5
124
100
AcDbEntity
  8
1
100
AcDbLine
  6
CONTINUOUS
 62
40
 10
3.1610026E+002
 20
2.098262E+002
 11
3.1610026E+002
 21
2.0485381E+002
  0
LINE
  5
125
100
AcDbEntity
  8
1
100
AcDbLine
  6
CONTINUOUS
 62
40
 10
3.1610026E+002
 20
2.0485381E+002
 11
3.1478146E+002
 21
2.0485381E+002
  0
LINE
  5
126
100
AcDbEntity
  8
1
100
AcDbLine
  6
CONTINUOUS
 62
40
 10
3.1478146E+002
 20
2.0485381E+002
 11
3.1382675E+002
 21
2.0485381E+002
  0
ARC
  5
127
100
AcDbEntity
  8
1
100
AcDbCircle
  6
CONTINUOUS
 62
40
 10
3.1382675E+002
 20
2.0435381E+002
 40
4.9999979E-001
100
AcDbArc
 50
8.9999976E+001
 51
1.8000002E+002
  0
LINE
  5
128
100
AcDbEntity
  8
1
100
AcDbLine
  6
CONTINUOUS
 62
40
 10
3.1332675E+002
 20
2.0435381E+002
 11
3.1332675E+002
 21
2.02039E+002
  0
ARC
  5
129
100
AcDbEntity
  8
1
100
AcDbCircle
  6
CONTINUOUS
 62
40
 10
3.1476294E+002
 20
2.0319775E+002
 40
1.8453526
100
AcDbArc
 50
2.1889724E+002
 51
2.7030336E+002
  0
ARC
  5
12a
100
AcDbEntity
  8
1
100
AcDbCircle
  6
CONTINUOUS
 62
40
 10
3.1476292E+002
 20
2.0320307E+002
 40
1.8506806
100
AcDbArc
 50
2.7030331E+002
 51
3.216111E+002
  0
ARC
  5
12b
100
AcDbEntity
  8
1
100
AcDbCircle
  6
CONTINUOUS
 62
40
 10
3.190663E+002
 20
2.0728265E+002
 40
5.9564369
100
AcDbArc
 50
2.4138366E+002
 51
2.7026235E+002
  0
ARC
  5
12c
100
AcDbEntity
  8
1
100
AcDbCircle
  6
CONTINUOUS
 62
40
 10
3.1906586E+002
 20
2.0739006E+002
 40
6.0638495
100
AcDbArc
 50
2.7026185E+002
 51
2.9879861E+002
  0
LINE
  5
12d
100
AcDbEntity
  8
1
100
AcDbLine
  6
CONTINUOUS
 62
40
 10
3.2198701E+002
 20
2.020762E+002
 11
3.2198701E+002
 21
2.02039E+002
  0
ARC
  5
12e
100
AcDbEntity
  8
1
100
AcDbCircle
  6
CONTINUOUS
 62
40
 10
3.2342701E+002
 20
2.0320042E+002
 40
1.8500002
100
AcDbArc
 50
2.1888763E+002
 51
3.214466E+002
  0
LINE
  5
12f
100
AcDbEntity
  8
1
100
AcDbLine
  6
CONTINUOUS
 62
40
 10
3.2487376E+002
 20
2.0204742E+002
 11
3.2487376E+002
 21
2.0435381E+002
  0
ARC
  5
130
100
AcDbEntity
  8
1
100
AcDbCircle
  6
CONTINUOUS
 62
40
 10
3.2437376E+002
 20
2.0435381E+002
 40
4.9999935E-001
100
AcDbArc
 50
3.5999993E+002
 51
4.5000007E+002
  0
LINE
  5
131
100
AcDbEntity
  8
1
100
AcDbLine
  6
CONTINUOUS
 62
40
 10
3.2437376E+002
 20
2.0485381E+002
 11
3.2371906E+002
 21
2.0485381E+002
  0
LINE
  5
132
100
AcDbEntity
  8
1
100
AcDbLine
  6
CONTINUOUS
 62
40
 10
3.2371906E+002
 20
2.0485381E+002
 11
3.2210026E+002
 21
2.0485381E+002
  0
LINE
  5
133
100
AcDbEntity
  8
1
100
AcDbLine
  6
CONTINUOUS
 62
40
 10
3.2210026E+002
 20
2.0485381E+002
 11
3.2210026E+002
 21
2.098262E+002
  0
LINE
  5
134
100
AcDbEntity
  8
1
100
AcDbLine
  6
CONTINUOUS
 62
40
 10
2.9405953E+002
 20
2.7632632E+002
 11
2.8950953E+002
 21
2.7632632E+002
  0
ARC
  5
135
100
AcDbEntity
  8
1
100
AcDbCircle
  6
CONTINUOUS
 62
40
 10
2.8950953E+002
 20
2.7582632E+002
 40
5.0000057E-001
100
AcDbArc
 50
9.0000066E+001
 51
1.7999993E+002
  0
LINE
  5
136
100
AcDbEntity
  8
1
100
AcDbLine
  6
CONTINUOUS
 62
40
 10
2.8900953E+002
 20
2.7582632E+002
 11
2.8900953E+002
 21
2.6882632E+002
  0
ARC
  5
137
100
AcDbEntity
  8
1
100
AcDbCircle
  6
CONTINUOUS
 62
40
 10
2.8950953E+002
 20
2.6882632E+002
 40
5.0000024E-001
100
AcDbArc
 50
1.8000003E+002
 51
2.6999997E+002
  0
LINE
  5
138
100
AcDbEntity
  8
1
100
AcDbLine
  6
CONTINUOUS
 62
40
 10
2.8950953E+002
 20
2.6832632E+002
 11
2.9405953E+002
 21
2.6832632E+002
  0
LINE
  5
139
100
AcDbEntity
  8
1
100
AcDbLine
  6
CONTINUOUS
 62
40
 10
2.9405953E+002
 20
2.7632632E+002
 11
2.9860954E+002
 21
2.7632632E+002
  0
ARC
  5
13a
100
AcDbEntity
  8
1
100
AcDbCircle
  6
CONTINUOUS
 62
40
 10
2.9860954E+002
 20
2.7582632E+002
 40
5.000009E-001
100
AcDbArc
 50
1.030016E-004
 51
8.9999897E+001
  0
LINE
  5
13b
100
AcDbEntity
  8
1
100
AcDbLine
  6
CONTINUOUS
 62
40
 10
2.9910954E+002
 20
2.7582632E+002
 11
2.9910954E+002
 21
2.6882632E+002
  0
ARC
  5
13c
100
AcDbEntity
  8
1
100
AcDbCircle
  6
CONTINUOUS
 62
40
 10
2.9860954E+002
 20
2.6882632E+002
 40
5.0000056E-001
100
AcDbArc
 50
2.7000006E+002
 51
3.5999994E+002
  0
LINE
  5
13d
100
AcDbEntity
  8
1
100
AcDbLine
  6
CONTINUOUS
 62
40
 10
2.9860954E+002
 20
2.6832632E+002
 11
2.9405953E+002
 21
2.6832632E+002
  0
LINE
  5
13e
100
AcDbEntity
  8
1
100
AcDbLine
  6
CONTINUOUS
 62
40
 10
2.9405953E+002
 20
2.0432634E+002
 11
2.9860954E+002
 21
2.0432634E+002
  0
ARC
  5
13f
100
AcDbEntity
  8
1
100
AcDbCircle
  6
CONTINUOUS
 62
40
 10
2.9860954E+002
 20
2.0482634E+002
 40
5.0000078E-001
100
AcDbArc
 50
2.7000009E+002
 51
3.5999991E+002
  0
LINE
  5
140
100
AcDbEntity
  8
1
100
AcDbLine
  6
CONTINUOUS
 62
40
 10
2.9910954E+002
 20
2.0482634E+002
 11
2.9910954E+002
 21
2.1182634E+002
  0
ARC
  5
141
100
AcDbEntity
  8
1
100
AcDbCircle
  6
CONTINUOUS
 62
40
 10
2.9860954E+002
 20
2.1182634E+002
 40
4.9999997E-001
100
AcDbArc
 50
0.0
 51
9.0E+001
  0
LINE
  5
142
100
AcDbEntity
  8
1
100
AcDbLine
  6
CONTINUOUS
 62
40
 10
2.9860954E+002
 20
2.1232634E+002
 11
2.9405953E+002
 21
2.1232634E+002
  0
LINE
  5
143
100
AcDbEntity
  8
1
100
AcDbLine
  6
CONTINUOUS
 62
40
 10
2.9405953E+002
 20
2.0432634E+002
 11
2.8950953E+002
 21
2.0432634E+002
  0
ARC
  5
144
100
AcDbEntity
  8
1
100
AcDbCircle
  6
CONTINUOUS
 62
40
 10
2.8950953E+002
 20
2.0482634E+002
 40
5.0000046E-001
100
AcDbArc
 50
1.8000005E+002
 51
2.6999995E+002
  0
LINE
  5
145
100
AcDbEntity
  8
1
100
AcDbLine
  6
CONTINUOUS
 62
40
 10
2.8900953E+002
 20
2.0482634E+002
 11
2.8900953E+002
 21
2.1182634E+002
  0
ARC
  5
146
100
AcDbEntity
  8
1
100
AcDbCircle
  6
CONTINUOUS
 62
40
 10
2.8950953E+002
 20
2.1182634E+002
 40
4.9999964E-001
100
AcDbArc
 50
8.9999959E+001
 51
1.8000004E+002
  0
LINE
  5
147
100
AcDbEntity
  8
1
100
AcDbLine
  6
CONTINUOUS
 62
40
 10
2.8950953E+002
 20
2.1232634E+002
 11
2.9405953E+002
 21
2.1232634E+002
  0
CIRCLE
  5
148
100
AcDbEntity
  8
1
100
AcDbCircle
  6
CONTINUOUS
 62
40
 10
2.9405953E+002
 20
2.0832615E+002
 40
2.100006
  0
CIRCLE
  5
149
100
AcDbEntity
  8
1
100
AcDbCircle
  6
CONTINUOUS
 62
40
 10
2.9405953E+002
 20
2.7232632E+002
 40
2.100006
  0
LINE
  5
14a
100
AcDbEntity
  8
1
100
AcDbLine
  6
CONTINUOUS
 62
40
 10
2.4105961E+002
 20
2.7632634E+002
 11
2.365096E+002
 21
2.7632634E+002
  0
ARC
  5
14b
100
AcDbEntity
  8
1
100
AcDbCircle
  6
CONTINUOUS
 62
40
 10
2.365096E+002
 20
2.7582634E+002
 40
4.999993E-001
100
AcDbArc
 50
8.999992E+001
 51
1.8000008E+002
  0
LINE
  5
14c
100
AcDbEntity
  8
1
100
AcDbLine
  6
CONTINUOUS
 62
40
 10
2.360096E+002
 20
2.7582634E+002
 11
2.360096E+002
 21
2.6882634E+002
  0
ARC
  5
14d
100
AcDbEntity
  8
1
100
AcDbCircle
  6
CONTINUOUS
 62
40
 10
2.365096E+002
 20
2.6882634E+002
 40
5.0000011E-001
100
AcDbArc
 50
1.8000001E+002
 51
2.6999999E+002
  0
LINE
  5
14e
100
AcDbEntity
  8
1
100
AcDbLine
  6
CONTINUOUS
 62
40
 10
2.365096E+002
 20
2.6832634E+002
 11
2.4105961E+002
 21
2.6832634E+002
  0
LINE
  5
14f
100
AcDbEntity
  8
1
100
AcDbLine
  6
CONTINUOUS
 62
40
 10
2.4105961E+002
 20
2.7632634E+002
 11
2.4560961E+002
 21
2.7632634E+002
  0
ARC
  5
150
100
AcDbEntity
  8
1
100
AcDbCircle
  6
CONTINUOUS
 62
40
 10
2.4560961E+002
 20
2.7582634E+002
 40
4.9999911E-001
100
AcDbArc
 50
3.599999E+002
 51
4.500001E+002
  0
LINE
  5
151
100
AcDbEntity
  8
1
100
AcDbLine
  6
CONTINUOUS
 62
40
 10
2.4610961E+002
 20
2.7582634E+002
 11
2.4610961E+002
 21
2.6882634E+002
  0
ARC
  5
152
100
AcDbEntity
  8
1
100
AcDbCircle
  6
CONTINUOUS
 62
40
 10
2.4560961E+002
 20
2.6882634E+002
 40
4.9999992E-001
100
AcDbArc
 50
2.7E+002
 51
3.6E+002
  0
LINE
  5
153
100
AcDbEntity
  8
1
100
AcDbLine
  6
CONTINUOUS
 62
40
 10
2.4560961E+002
 20
2.6832634E+002
 11
2.4105961E+002
 21
2.6832634E+002
  0
LINE
  5
154
100
AcDbEntity
  8
1
100
AcDbLine
  6
CONTINUOUS
 62
40
 10
2.4105961E+002
 20
2.0432634E+002
 11
2.4560961E+002
 21
2.0432634E+002
  0
ARC
  5
155
100
AcDbEntity
  8
1
100
AcDbCircle
  6
CONTINUOUS
 62
40
 10
2.4560961E+002
 20
2.0482634E+002
 40
4.9999992E-001
100
AcDbArc
 50
2.7E+002
 51
3.6E+002
  0
LINE
  5
156
100
AcDbEntity
  8
1
100
AcDbLine
  6
CONTINUOUS
 62
40
 10
2.4610961E+002
 20
2.0482634E+002
 11
2.4610961E+002
 21
2.1182634E+002
  0
ARC
  5
157
100
AcDbEntity
  8
1
100
AcDbCircle
  6
CONTINUOUS
 62
40
 10
2.4560961E+002
 20
2.1182634E+002
 40
4.9999911E-001
100
AcDbArc
 50
3.599999E+002
 51
4.500001E+002
  0
LINE
  5
158
100
AcDbEntity
  8
1
100
AcDbLine
  6
CONTINUOUS
 62
40
 10
2.4560961E+002
 20
2.1232634E+002
 11
2.4105961E+002
 21
2.1232634E+002
  0
LINE
  5
159
100
AcDbEntity
  8
1
100
AcDbLine
  6
CONTINUOUS
 62
40
 10
2.4105961E+002
 20
2.0432634E+002
 11
2.365096E+002
 21
2.0432634E+002
  0
ARC
  5
15a
100
AcDbEntity
  8
1
100
AcDbCircle
  6
CONTINUOUS
 62
40
 10
2.365096E+002
 20
2.0482634E+002
 40
5.0000011E-001
100
AcDbArc
 50
1.8000001E+002
 51
2.6999999E+002
  0
LINE
  5
15b
100
AcDbEntity
  8
1
100
AcDbLine
  6
CONTINUOUS
 62
40
 10
2.360096E+002
 20
2.0482634E+002
 11
2.360096E+002
 21
2.1182634E+002
  0
ARC
  5
15c
100
AcDbEntity
  8
1
100
AcDbCircle
  6
CONTINUOUS
 62
40
 10
2.365096E+002
 20
2.1182634E+002
 40
4.999993E-001
100
AcDbArc
 50
8.9999919E+001
 51
1.8000008E+002
  0
LINE
  5
15d
100
AcDbEntity
  8
1
100
AcDbLine
  6
CONTINUOUS
 62
40
 10
2.365096E+002
 20
2.1232634E+002
 11
2.4105961E+002
 21
2.1232634E+002
  0
CIRCLE
  5
15e
100
AcDbEntity
  8
1
100
AcDbCircle
  6
CONTINUOUS
 62
40
 10
2.4105961E+002
 20
2.0832616E+002
 40
2.100007
  0
CIRCLE
  5
15f
100
AcDbEntity
  8
1
100
AcDbCircle
  6
CONTINUOUS
 62
40
 10
2.4105961E+002
 20
2.7232634E+002
 40
2.100007
  0
LINE
  5
160
100
AcDbEntity
  8
1
100
AcDbLine
  6
CENTERLINE
 62
1
 10
1.7407884E+002
 20
2.1150041E+002
 11
1.7407884E+002
 21
1.9932624E+002
  0
LINE
  5
161
100
AcDbEntity
  8
1
100
AcDbLine
  6
CONTINUOUS
 62
40
 10
8.4559596E+001
 20
2.6782623E+002
 11
8.4559596E+001
 21
2.7932632E+002
  0
LINE
  5
162
100
AcDbEntity
  8
1
100
AcDbLine
  6
CONTINUOUS
 62
40
 10
8.4559596E+001
 20
2.7932632E+002
 11
3.5655959E+002
 21
2.7932632E+002
  0
LINE
  5
163
100
AcDbEntity
  8
1
100
AcDbLine
  6
CONTINUOUS
 62
40
 10
3.5655959E+002
 20
2.7932632E+002
 11
3.5655959E+002
 21
2.0132623E+002
  0
LINE
  5
164
100
AcDbEntity
  8
1
100
AcDbLine
  6
CONTINUOUS
 62
40
 10
3.5655959E+002
 20
2.0132623E+002
 11
8.4559596E+001
 21
2.0132623E+002
  0
LINE
  5
165
100
AcDbEntity
  8
1
100
AcDbLine
  6
CONTINUOUS
 62
40
 10
8.4559596E+001
 20
2.0132623E+002
 11
8.4559596E+001
 21
2.1282623E+002
  0
LINE
  5
166
100
AcDbEntity
  8
1
100
AcDbLine
  6
CONTINUOUS
 62
40
 10
8.3059596E+001
 20
2.1282623E+002
 11
8.30596E+001
 21
1.9932623E+002
  0
LINE
  5
167
100
AcDbEntity
  8
1
100
AcDbLine
  6
CONTINUOUS
 62
40
 10
8.30596E+001
 20
1.9932623E+002
 11
3.5805959E+002
 21
1.9932623E+002
  0
LINE
  5
168
100
AcDbEntity
  8
1
100
AcDbLine
  6
CONTINUOUS
 62
40
 10
3.5805959E+002
 20
1.9932623E+002
 11
3.5805959E+002
 21
2.8132632E+002
  0
LINE
  5
169
100
AcDbEntity
  8
1
100
AcDbLine
  6
CONTINUOUS
 62
40
 10
3.5805959E+002
 20
2.8132632E+002
 11
8.30596E+001
 21
2.8132632E+002
  0
LINE
  5
16a
100
AcDbEntity
  8
1
100
AcDbLine
  6
CONTINUOUS
 62
40
 10
8.30596E+001
 20
2.8132632E+002
 11
8.3059596E+001
 21
2.6782623E+002
  0
LINE
  5
16b
100
AcDbEntity
  8
1
100
AcDbLine
  6
CONTINUOUS
 62
40
 10
2.335596E+002
 20
1.9982616E+002
 11
2.335596E+002
 21
1.9932623E+002
  0
LINE
  5
16c
100
AcDbEntity
  8
1
100
AcDbLine
  6
CONTINUOUS
 62
40
 10
2.335596E+002
 20
1.9932623E+002
 11
2.335596E+002
 21
2.1332617E+002
  0
ARC
  5
16d
100
AcDbEntity
  8
1
100
AcDbCircle
  6
CONTINUOUS
 62
40
 10
2.365596E+002
 20
2.1332617E+002
 40
3.0000001
100
AcDbArc
 50
9.0E+001
 51
1.8E+002
  0
LINE
  5
16e
100
AcDbEntity
  8
1
100
AcDbLine
  6
CONTINUOUS
 62
40
 10
2.365596E+002
 20
2.1632617E+002
 11
2.4555959E+002
 21
2.1632617E+002
  0
LINE
  5
16f
100
AcDbEntity
  8
1
100
AcDbLine
  6
CONTINUOUS
 62
40
 10
2.4555959E+002
 20
2.1632617E+002
 11
2.9855959E+002
 21
2.1632617E+002
  0
ARC
  5
170
100
AcDbEntity
  8
1
100
AcDbCircle
  6
CONTINUOUS
 62
40
 10
2.9855959E+002
 20
2.1332617E+002
 40
3.0000016
100
AcDbArc
 50
2.96421E-005
 51
8.999997E+001
  0
LINE
  5
171
100
AcDbEntity
  8
1
100
AcDbLine
  6
CONTINUOUS
 62
40
 10
3.0155959E+002
 20
2.1332617E+002
 11
3.0155959E+002
 21
1.9982616E+002
  0
LINE
  5
172
100
AcDbEntity
  8
1
100
AcDbLine
  6
CONTINUOUS
 62
40
 10
3.0155959E+002
 20
1.9982616E+002
 11
3.0155959E+002
 21
1.9932623E+002
  0
LINE
  5
173
100
AcDbEntity
  8
1
100
AcDbLine
  6
CONTINUOUS
 62
40
 10
2.335596E+002
 20
2.8082626E+002
 11
2.335596E+002
 21
2.8132632E+002
  0
LINE
  5
174
100
AcDbEntity
  8
1
100
AcDbLine
  6
CONTINUOUS
 62
40
 10
2.335596E+002
 20
2.8132632E+002
 11
2.335596E+002
 21
2.6732624E+002
  0
ARC
  5
175
100
AcDbEntity
  8
1
100
AcDbCircle
  6
CONTINUOUS
 62
40
 10
2.3655959E+002
 20
2.6732624E+002
 40
2.999994
100
AcDbArc
 50
1.7999989E+002
 51
2.7000011E+002
  0
LINE
  5
176
100
AcDbEntity
  8
1
100
AcDbLine
  6
CONTINUOUS
 62
40
 10
2.365596E+002
 20
2.6432624E+002
 11
2.4555959E+002
 21
2.6432624E+002
  0
LINE
  5
177
100
AcDbEntity
  8
1
100
AcDbLine
  6
CONTINUOUS
 62
40
 10
2.4555959E+002
 20
2.6432624E+002
 11
2.9855959E+002
 21
2.6432624E+002
  0
ARC
  5
178
100
AcDbEntity
  8
1
100
AcDbCircle
  6
CONTINUOUS
 62
40
 10
2.985596E+002
 20
2.6732624E+002
 40
2.9999955
100
AcDbArc
 50
2.6999991E+002
 51
3.6000009E+002
  0
LINE
  5
179
100
AcDbEntity
  8
1
100
AcDbLine
  6
CONTINUOUS
 62
40
 10
3.0155959E+002
 20
2.6732624E+002
 11
3.0155959E+002
 21
2.8082625E+002
  0
LINE
  5
17a
100
AcDbEntity
  8
1
100
AcDbLine
  6
CONTINUOUS
 62
40
 10
3.0155959E+002
 20
2.8082625E+002
 11
3.0155959E+002
 21
2.8132632E+002
  0
LINE
  5
17b
100
AcDbEntity
  8
1
100
AcDbLine
  6
CONTINUOUS
 62
40
 10
2.9000961E+002
 20
2.7732633E+002
 11
2.9000961E+002
 21
2.6732632E+002
  0
LINE
  5
17c
100
AcDbEntity
  8
1
100
AcDbLine
  6
CONTINUOUS
 62
40
 10
2.9000961E+002
 20
2.6732632E+002
 11
2.9810961E+002
 21
2.6732632E+002
  0
LINE
  5
17d
100
AcDbEntity
  8
1
100
AcDbLine
  6
CONTINUOUS
 62
40
 10
2.9810961E+002
 20
2.6732632E+002
 11
2.9810961E+002
 21
2.7732633E+002
  0
LINE
  5
17e
100
AcDbEntity
  8
1
100
AcDbLine
  6
CONTINUOUS
 62
40
 10
2.9810961E+002
 20
2.7732633E+002
 11
2.9000961E+002
 21
2.7732633E+002
  0
LINE
  5
17f
100
AcDbEntity
  8
1
100
AcDbLine
  6
CONTINUOUS
 62
40
 10
2.9000961E+002
 20
2.0332624E+002
 11
2.9000961E+002
 21
2.1332625E+002
  0
LINE
  5
180
100
AcDbEntity
  8
1
100
AcDbLine
  6
CONTINUOUS
 62
40
 10
2.9000961E+002
 20
2.1332625E+002
 11
2.9810961E+002
 21
2.1332625E+002
  0
LINE
  5
181
100
AcDbEntity
  8
1
100
AcDbLine
  6
CONTINUOUS
 62
40
 10
2.9810961E+002
 20
2.1332625E+002
 11
2.9810961E+002
 21
2.0332624E+002
  0
LINE
  5
182
100
AcDbEntity
  8
1
100
AcDbLine
  6
CONTINUOUS
 62
40
 10
2.9810961E+002
 20
2.0332624E+002
 11
2.9000961E+002
 21
2.0332624E+002
  0
LINE
  5
183
100
AcDbEntity
  8
1
100
AcDbLine
  6
CONTINUOUS
 62
40
 10
2.3700961E+002
 20
2.7732633E+002
 11
2.3700961E+002
 21
2.6732632E+002
  0
LINE
  5
184
100
AcDbEntity
  8
1
100
AcDbLine
  6
CONTINUOUS
 62
40
 10
2.3700961E+002
 20
2.6732632E+002
 11
2.4510961E+002
 21
2.6732632E+002
  0
LINE
  5
185
100
AcDbEntity
  8
1
100
AcDbLine
  6
CONTINUOUS
 62
40
 10
2.4510961E+002
 20
2.6732632E+002
 11
2.4510961E+002
 21
2.7732633E+002
  0
LINE
  5
186
100
AcDbEntity
  8
1
100
AcDbLine
  6
CONTINUOUS
 62
40
 10
2.4510961E+002
 20
2.7732633E+002
 11
2.3700961E+002
 21
2.7732633E+002
  0
LINE
  5
187
100
AcDbEntity
  8
1
100
AcDbLine
  6
CONTINUOUS
 62
40
 10
2.3700961E+002
 20
2.0332624E+002
 11
2.3700961E+002
 21
2.1332625E+002
  0
LINE
  5
188
100
AcDbEntity
  8
1
100
AcDbLine
  6
CONTINUOUS
 62
40
 10
2.3700961E+002
 20
2.1332625E+002
 11
2.4510961E+002
 21
2.1332625E+002
  0
LINE
  5
189
100
AcDbEntity
  8
1
100
AcDbLine
  6
CONTINUOUS
 62
40
 10
2.4510961E+002
 20
2.1332625E+002
 11
2.4510961E+002
 21
2.0332624E+002
  0
LINE
  5
18a
100
AcDbEntity
  8
1
100
AcDbLine
  6
CONTINUOUS
 62
40
 10
2.4510961E+002
 20
2.0332624E+002
 11
2.3700961E+002
 21
2.0332624E+002
  0
LINE
  5
18b
100
AcDbEntity
  8
1
100
AcDbLine
  6
CENTERLINE
 62
1
 10
6.4208095E+001
 20
2.4032623E+002
 11
2.1909745E+002
 21
2.4032623E+002
  0
LINE
  5
18c
100
AcDbEntity
  8
1
100
AcDbLine
  6
CENTERLINE
 62
1
 10
2.1909745E+002
 20
2.4032623E+002
 11
3.6301218E+002
 21
2.4032623E+002
  0
LINE
  5
18d
100
AcDbEntity
  8
1
100
AcDbLine
  6
CONTINUOUS
 62
40
 10
3.4605952E+002
 20
2.353262E+002
 11
3.4605952E+002
 21
2.3532622E+002
  0
LINE
  5
18e
100
AcDbEntity
  8
1
100
AcDbLine
  6
CONTINUOUS
 62
40
 10
3.4605952E+002
 20
2.3532622E+002
 11
3.4655952E+002
 21
2.358262E+002
  0
LINE
  5
18f
100
AcDbEntity
  8
1
100
AcDbLine
  6
CONTINUOUS
 62
40
 10
3.4655952E+002
 20
2.358262E+002
 11
3.4655952E+002
 21
2.448262E+002
  0
LINE
  5
190
100
AcDbEntity
  8
1
100
AcDbLine
  6
CONTINUOUS
 62
40
 10
3.4655952E+002
 20
2.448262E+002
 11
3.4605952E+002
 21
2.453262E+002
  0
LINE
  5
191
100
AcDbEntity
  8
1
100
AcDbLine
  6
CONTINUOUS
 62
40
 10
3.4582266E+002
 20
2.403262E+002
 11
3.4655952E+002
 21
2.4032618E+002
  0
LINE
  5
192
100
AcDbEntity
  8
1
100
AcDbLine
  6
CONTINUOUS
 62
40
 10
3.4655952E+002
 20
2.4032618E+002
 11
3.4035952E+002
 21
2.403262E+002
  0
LINE
  5
193
100
AcDbEntity
  8
1
100
AcDbLine
  6
CONTINUOUS
 62
40
 10
3.3805952E+002
 20
2.345762E+002
 11
3.3805952E+002
 21
2.460762E+002
  0
LINE
  5
194
100
AcDbEntity
  8
1
100
AcDbLine
  6
CONTINUOUS
 62
40
 10
3.3915953E+002
 20
2.345762E+002
 11
3.3915953E+002
 21
2.460762E+002
  0
LINE
  5
195
100
AcDbEntity
  8
1
100
AcDbLine
  6
CONTINUOUS
 62
40
 10
3.4035952E+002
 20
2.343262E+002
 11
3.4035952E+002
 21
2.4632619E+002
  0
LINE
  5
196
100
AcDbEntity
  8
1
100
AcDbLine
  6
CONTINUOUS
 62
40
 10
3.3915953E+002
 20
2.4632619E+002
 11
3.4035952E+002
 21
2.4632619E+002
  0
LINE
  5
197
100
AcDbEntity
  8
1
100
AcDbLine
  6
CONTINUOUS
 62
40
 10
3.4035952E+002
 20
2.4632619E+002
 11
3.4035952E+002
 21
2.353262E+002
  0
LINE
  5
198
100
AcDbEntity
  8
1
100
AcDbLine
  6
CONTINUOUS
 62
40
 10
3.4035952E+002
 20
2.353262E+002
 11
3.4035952E+002
 21
2.343262E+002
  0
LINE
  5
199
100
AcDbEntity
  8
1
100
AcDbLine
  6
CONTINUOUS
 62
40
 10
3.4035952E+002
 20
2.343262E+002
 11
3.3915953E+002
 21
2.343262E+002
  0
LINE
  5
19a
100
AcDbEntity
  8
1
100
AcDbLine
  6
CONTINUOUS
 62
40
 10
3.4605952E+002
 20
2.3532622E+002
 11
3.4035952E+002
 21
2.3532622E+002
  0
LINE
  5
19b
100
AcDbEntity
  8
1
100
AcDbLine
  6
CONTINUOUS
 62
40
 10
3.4605952E+002
 20
2.453262E+002
 11
3.4035952E+002
 21
2.453262E+002
  0
LINE
  5
19c
100
AcDbEntity
  8
1
100
AcDbLine
  6
CONTINUOUS
 62
40
 10
3.3915953E+002
 20
2.4807618E+002
 11
3.3915953E+002
 21
2.3257619E+002
  0
LINE
  5
19d
100
AcDbEntity
  8
1
100
AcDbLine
  6
CONTINUOUS
 62
40
 10
3.3915953E+002
 20
2.3257619E+002
 11
3.3805952E+002
 21
2.3257619E+002
  0
LINE
  5
19e
100
AcDbEntity
  8
1
100
AcDbLine
  6
CONTINUOUS
 62
40
 10
3.3805952E+002
 20
2.3257619E+002
 11
3.3805952E+002
 21
2.4807618E+002
  0
LINE
  5
19f
100
AcDbEntity
  8
1
100
AcDbLine
  6
CONTINUOUS
 62
40
 10
3.3805952E+002
 20
2.4807618E+002
 11
3.3915953E+002
 21
2.4807618E+002
  0
LINE
  5
1a0
100
AcDbEntity
  8
1
100
AcDbLine
  6
CONTINUOUS
 62
40
 10
2.041712E+002
 20
2.1139848E+002
 11
2.1008729E+002
 21
2.1731456E+002
  0
LINE
  5
1a1
100
AcDbEntity
  8
1
100
AcDbLine
  6
CONTINUOUS
 62
40
 10
2.1114794E+002
 20
2.1625389E+002
 11
2.0523185E+002
 21
2.1033782E+002
  0
CIRCLE
  5
1a2
100
AcDbEntity
  8
1
100
AcDbCircle
  6
CONTINUOUS
 62
40
 10
2.0765957E+002
 20
2.1382619E+002
 40
4.25
  0
LINE
  5
1a3
100
AcDbEntity
  8
1
100
AcDbLine
  6
CONTINUOUS
 62
40
 10
2.1007122E+002
 20
2.6439847E+002
 11
2.1598731E+002
 21
2.7031454E+002
  0
LINE
  5
1a4
100
AcDbEntity
  8
1
100
AcDbLine
  6
CONTINUOUS
 62
40
 10
2.1704797E+002
 20
2.6925387E+002
 11
2.1113187E+002
 21
2.633378E+002
  0
CIRCLE
  5
1a5
100
AcDbEntity
  8
1
100
AcDbCircle
  6
CONTINUOUS
 62
40
 10
2.1355959E+002
 20
2.6682617E+002
 40
4.25
  0
LINE
  5
1a6
100
AcDbEntity
  8
1
100
AcDbLine
  6
CONTINUOUS
 62
40
 10
1.6355958E+002
 20
2.4032623E+002
 11
1.6355958E+002
 21
2.3482623E+002
  0
ARC
  5
1a7
100
AcDbEntity
  8
1
100
AcDbCircle
  6
CONTINUOUS
 62
40
 10
1.4155958E+002
 20
2.3482623E+002
 40
2.2E+001
100
AcDbArc
 50
2.7E+002
 51
3.6E+002
  0
LINE
  5
1a8
100
AcDbEntity
  8
1
100
AcDbLine
  6
CONTINUOUS
 62
40
 10
1.4155958E+002
 20
2.1282623E+002
 11
7.0059577E+001
 21
2.1282623E+002
  0
LINE
  5
1a9
100
AcDbEntity
  8
1
100
AcDbLine
  6
CONTINUOUS
 62
40
 10
7.0059577E+001
 20
2.1282623E+002
 11
7.0059577E+001
 21
2.4032623E+002
  0
LINE
  5
1aa
100
AcDbEntity
  8
1
100
AcDbLine
  6
CONTINUOUS
 62
40
 10
1.6355958E+002
 20
2.4032623E+002
 11
1.6355958E+002
 21
2.4582623E+002
  0
ARC
  5
1ab
100
AcDbEntity
  8
1
100
AcDbCircle
  6
CONTINUOUS
 62
40
 10
1.4155958E+002
 20
2.4582623E+002
 40
2.2E+001
100
AcDbArc
 50
3.6E+002
 51
4.5E+002
  0
LINE
  5
1ac
100
AcDbEntity
  8
1
100
AcDbLine
  6
CONTINUOUS
 62
40
 10
1.4155958E+002
 20
2.6782623E+002
 11
7.0059577E+001
 21
2.6782623E+002
  0
LINE
  5
1ad
100
AcDbEntity
  8
1
100
AcDbLine
  6
CONTINUOUS
 62
40
 10
7.0059577E+001
 20
2.6782623E+002
 11
7.0059577E+001
 21
2.4032623E+002
  0
LINE
  5
1ae
100
AcDbEntity
  8
1
100
AcDbLine
  6
HIDDEN
 62
1
 10
7.0059577E+001
 20
2.5532623E+002
 11
1.3405958E+002
 21
2.5532623E+002
  0
ARC
  5
1af
100
AcDbEntity
  8
1
100
AcDbCircle
  6
HIDDEN
 62
1
 10
1.3405958E+002
 20
2.4032623E+002
 40
1.5E+001
100
AcDbArc
 50
2.7E+002
 51
4.5E+002
  0
LINE
  5
1b0
100
AcDbEntity
  8
1
100
AcDbLine
  6
HIDDEN
 62
1
 10
1.3405958E+002
 20
2.2532623E+002
 11
7.0059577E+001
 21
2.2532623E+002
  0
LINE
  5
1b1
100
AcDbEntity
  8
1
100
AcDbLine
  6
CONTINUOUS
 62
40
 10
8.0059479E+001
 20
2.1282623E+002
 11
8.0059577E+001
 21
2.6782623E+002
  0
CIRCLE
  5
1b2
100
AcDbEntity
  8
1
100
AcDbCircle
  6
CONTINUOUS
 62
40
 10
9.3059577E+001
 20
2.4032623E+002
 40
5.0
  0
LINE
  5
1b3
100
AcDbEntity
  8
1
100
AcDbLine
  6
CONTINUOUS
 62
40
 10
1.7815223E+002
 20
2.0982617E+002
 11
1.7055954E+002
 21
2.0982617E+002
  0
LINE
  5
1b4
100
AcDbEntity
  8
1
100
AcDbLine
  6
CONTINUOUS
 62
40
 10
1.0977629E+002
 20
2.0889066E+002
 11
1.0640359E+002
 21
2.1226334E+002
  0
LINE
  5
1b5
100
AcDbEntity
  8
1
100
AcDbLine
  6
CONTINUOUS
 62
40
 10
1.0534294E+002
 20
2.1120267E+002
 11
1.0871562E+002
 21
2.0782999E+002
  0
LINE
  5
1b6
100
AcDbEntity
  8
1
100
AcDbLine
  6
CONTINUOUS
 62
40
 10
1.0534294E+002
 20
2.6954817E+002
 11
1.0871564E+002
 21
2.7292085E+002
  0
LINE
  5
1b7
100
AcDbEntity
  8
1
100
AcDbLine
  6
CONTINUOUS
 62
40
 10
1.0977629E+002
 20
2.7186018E+002
 11
1.0640361E+002
 21
2.684875E+002
  0
LINE
  5
1b8
100
AcDbEntity
  8
1
100
AcDbLine
  6
CONTINUOUS
 62
40
 10
3.0284287E+002
 20
2.111702E+002
 11
3.0621557E+002
 21
2.1454288E+002
  0
LINE
  5
1b9
100
AcDbEntity
  8
1
100
AcDbLine
  6
CONTINUOUS
 62
40
 10
3.0727623E+002
 20
2.1348221E+002
 11
3.0390354E+002
 21
2.1010953E+002
  0
LINE
  5
1ba
100
AcDbEntity
  8
1
100
AcDbLine
  6
CONTINUOUS
 62
40
 10
3.0284289E+002
 20
2.6717024E+002
 11
3.0621559E+002
 21
2.7054292E+002
  0
LINE
  5
1bb
100
AcDbEntity
  8
1
100
AcDbLine
  6
CONTINUOUS
 62
40
 10
3.0727624E+002
 20
2.6948226E+002
 11
3.0390356E+002
 21
2.6610957E+002
  0
LINE
  5
1bc
100
AcDbEntity
  8
1
100
AcDbLine
  6
CONTINUOUS
 62
40
 10
2.0305957E+002
 20
2.058262E+002
 11
1.7705958E+002
 21
2.0582616E+002
  0
LINE
  5
1bd
100
AcDbEntity
  8
1
100
AcDbLine
  6
CONTINUOUS
 62
40
 10
1.7105959E+002
 20
2.0582615E+002
 11
1.6106748E+002
 21
2.0582614E+002
  0
LINE
  5
1be
100
AcDbEntity
  8
1
100
AcDbLine
  6
CONTINUOUS
 62
40
 10
1.6106748E+002
 20
2.0582614E+002
 11
9.0559615E+001
 21
2.0582617E+002
  0
ARC
  5
1bf
100
AcDbEntity
  8
1
100
AcDbCircle
  6
CONTINUOUS
 62
40
 10
9.0559454E+001
 20
2.0982498E+002
 40
3.9988064
100
AcDbArc
 50
2.5874889E+002
 51
2.700023E+002
  0
ARC
  5
1c0
100
AcDbEntity
  8
1
100
AcDbCircle
  6
CONTINUOUS
 62
40
 10
9.0559271E+001
 20
2.0982517E+002
 40
3.9989578
100
AcDbArc
 50
2.4749895E+002
 51
2.58752E+002
  0
ARC
  5
1c1
100
AcDbEntity
  8
1
100
AcDbCircle
  6
CONTINUOUS
 62
40
 10
9.0558825E+001
 20
2.0982465E+002
 40
3.9983028
100
AcDbArc
 50
2.3624721E+002
 51
2.4750198E+002
  0
ARC
  5
1c2
100
AcDbEntity
  8
1
100
AcDbCircle
  6
CONTINUOUS
 62
40
 10
9.0559322E+001
 20
2.0982583E+002
 40
3.9995619
100
AcDbArc
 50
2.2499929E+002
 51
2.362507E+002
  0
ARC
  5
1c3
100
AcDbEntity
  8
1
100
AcDbCircle
  6
CONTINUOUS
 62
40
 10
9.0558575E+001
 20
2.098253E+002
 40
3.9986608
100
AcDbArc
 50
2.1374762E+002
 51
2.2500151E+002
  0
LINE
  5
1c4
100
AcDbEntity
  8
1
100
AcDbLine
  6
CONTINUOUS
 62
40
 10
8.7233718E+001
 20
2.076039E+002
 11
8.7014846E+001
 21
2.0793147E+002
  0
LINE
  5
1c5
100
AcDbEntity
  8
1
100
AcDbLine
  6
CONTINUOUS
 62
40
 10
8.7014846E+001
 20
2.0793147E+002
 11
8.6864089E+001
 21
2.0829546E+002
  0
LINE
  5
1c6
100
AcDbEntity
  8
1
100
AcDbLine
  6
CONTINUOUS
 62
40
 10
8.6864089E+001
 20
2.0829546E+002
 11
8.6713332E+001
 21
2.0865944E+002
  0
LINE
  5
1c7
100
AcDbEntity
  8
1
100
AcDbLine
  6
CONTINUOUS
 62
40
 10
8.6713332E+001
 20
2.0865944E+002
 11
8.6636474E+001
 21
2.0904583E+002
  0
LINE
  5
1c8
100
AcDbEntity
  8
1
100
AcDbLine
  6
CONTINUOUS
 62
40
 10
8.6636474E+001
 20
2.0904583E+002
 11
8.6559615E+001
 21
2.098262E+002
  0
LINE
  5
1c9
100
AcDbEntity
  8
1
100
AcDbLine
  6
CONTINUOUS
 62
40
 10
8.6559615E+001
 20
2.098262E+002
 11
8.6559615E+001
 21
2.1277629E+002
  0
LINE
  5
1ca
100
AcDbEntity
  8
1
100
AcDbLine
  6
CONTINUOUS
 62
40
 10
2.1355955E+002
 20
2.7482622E+002
 11
1.7705958E+002
 21
2.7482622E+002
  0
LINE
  5
1cb
100
AcDbEntity
  8
1
100
AcDbLine
  6
CONTINUOUS
 62
40
 10
1.7105959E+002
 20
2.7482622E+002
 11
1.6106748E+002
 21
2.7482622E+002
  0
LINE
  5
1cc
100
AcDbEntity
  8
1
100
AcDbLine
  6
CONTINUOUS
 62
40
 10
1.6106748E+002
 20
2.7482622E+002
 11
9.0559615E+001
 21
2.7482628E+002
  0
ARC
  5
1cd
100
AcDbEntity
  8
1
100
AcDbCircle
  6
CONTINUOUS
 62
40
 10
9.0559596E+001
 20
2.708263E+002
 40
3.9999812
100
AcDbArc
 50
8.999973E+001
 51
1.8000114E+002
  0
LINE
  5
1ce
100
AcDbEntity
  8
1
100
AcDbLine
  6
CONTINUOUS
 62
40
 10
8.6559615E+001
 20
2.7082622E+002
 11
8.6559615E+001
 21
2.6782623E+002
  0
LINE
  5
1cf
100
AcDbEntity
  8
1
100
AcDbLine
  6
CONTINUOUS
 62
40
 10
2.2459737E+002
 20
2.195462E+002
 11
2.2459736E+002
 21
2.108261E+002
  0
ARC
  5
1d0
100
AcDbEntity
  8
1
100
AcDbCircle
  6
CONTINUOUS
 62
40
 10
2.334816E+002
 20
2.1081047E+002
 40
8.884252
100
AcDbArc
 50
1.7989925E+002
 51
1.8292164E+002
  0
ARC
  5
1d1
100
AcDbEntity
  8
1
100
AcDbCircle
  6
CONTINUOUS
 62
40
 10
2.3041023E+002
 20
2.1064871E+002
 40
5.8086381
100
AcDbArc
 50
1.8287228E+002
 51
1.8688602E+002
  0
ARC
  5
1d2
100
AcDbEntity
  8
1
100
AcDbCircle
  6
CONTINUOUS
 62
40
 10
2.2822163E+002
 20
2.1037922E+002
 40
3.6035209
100
AcDbArc
 50
1.8680427E+002
 51
1.9232498E+002
  0
ARC
  5
1d3
100
AcDbEntity
  8
1
100
AcDbCircle
  6
CONTINUOUS
 62
40
 10
2.2676764E+002
 20
2.1005645E+002
 40
2.1141442
100
AcDbArc
 50
1.9219031E+002
 51
2.000721E+002
  0
ARC
  5
1d4
100
AcDbEntity
  8
1
100
AcDbCircle
  6
CONTINUOUS
 62
40
 10
2.2607686E+002
 20
2.0981018E+002
 40
1.380816
100
AcDbArc
 50
2.0031112E+002
 51
2.0553521E+002
  0
ARC
  5
1d5
100
AcDbEntity
  8
1
100
AcDbCircle
  6
CONTINUOUS
 62
40
 10
2.2576122E+002
 20
2.0965886E+002
 40
1.0307792
100
AcDbArc
 50
2.0550886E+002
 51
2.1185709E+002
  0
ARC
  5
1d6
100
AcDbEntity
  8
1
100
AcDbCircle
  6
CONTINUOUS
 62
40
 10
2.2554576E+002
 20
2.0952465E+002
 40
7.7693399E-001
100
AcDbArc
 50
2.1183679E+002
 51
2.1950098E+002
  0
ARC
  5
1d7
100
AcDbEntity
  8
1
100
AcDbCircle
  6
CONTINUOUS
 62
40
 10
2.2541189E+002
 20
2.0941429E+002
 40
6.0343902E-001
100
AcDbArc
 50
2.1950133E+002
 51
2.2857007E+002
  0
ARC
  5
1d8
100
AcDbEntity
  8
1
100
AcDbCircle
  6
CONTINUOUS
 62
40
 10
2.2534101E+002
 20
2.093345E+002
 40
4.9671081E-001
100
AcDbArc
 50
2.2860937E+002
 51
2.3893187E+002
  0
ARC
  5
1d9
100
AcDbEntity
  8
1
100
AcDbCircle
  6
CONTINUOUS
 62
40
 10
2.2531458E+002
 20
2.092919E+002
 40
4.4658693E-001
100
AcDbArc
 50
2.390159E+002
 51
2.500948E+002
  0
ARC
  5
1da
100
AcDbEntity
  8
1
100
AcDbCircle
  6
CONTINUOUS
 62
40
 10
2.2531416E+002
 20
2.0929313E+002
 40
4.4760358E-001
100
AcDbArc
 50
2.5019909E+002
 51
2.6126126E+002
  0
ARC
  5
1db
100
AcDbEntity
  8
1
100
AcDbCircle
  6
CONTINUOUS
 62
40
 10
2.2532139E+002
 20
2.0934491E+002
 40
4.9987698E-001
100
AcDbArc
 50
2.6134373E+002
 51
2.7162271E+002
  0
ARC
  5
1dc
100
AcDbEntity
  8
1
100
AcDbCircle
  6
CONTINUOUS
 62
40
 10
1.9326991E+002
 20
2.1179689E+002
 40
1.9977691
100
AcDbArc
 50
1.171975E+001
 51
5.0911243E+001
  0
ARC
  5
1dd
100
AcDbEntity
  8
1
100
AcDbCircle
  6
CONTINUOUS
 62
40
 10
1.9326542E+002
 20
2.1179136E+002
 40
2.0048864
100
AcDbArc
 50
5.0911181E+001
 51
9.0009985E+001
  0
LINE
  5
1de
100
AcDbEntity
  8
1
100
AcDbLine
  6
CONTINUOUS
 62
40
 10
1.9326507E+002
 20
2.1379625E+002
 11
1.8305954E+002
 21
2.1379625E+002
  0
ARC
  5
1df
100
AcDbEntity
  8
1
100
AcDbCircle
  6
CONTINUOUS
 62
40
 10
1.8305953E+002
 20
2.1179626E+002
 40
1.9999895
100
AcDbArc
 50
8.9999699E+001
 51
1.800003E+002
  0
ARC
  5
1e0
100
AcDbEntity
  8
1
100
AcDbCircle
  6
CONTINUOUS
 62
40
 10
2.0305957E+002
 20
2.1382621E+002
 40
8.0000075
100
AcDbArc
 50
9.0E+001
 51
2.7E+002
  0
LINE
  5
1e1
100
AcDbEntity
  8
1
100
AcDbLine
  6
CONTINUOUS
 62
40
 10
2.0305957E+002
 20
2.2182622E+002
 11
2.0805958E+002
 21
2.2182622E+002
  0
ARC
  5
1e2
100
AcDbEntity
  8
1
100
AcDbCircle
  6
CONTINUOUS
 62
40
 10
2.0805958E+002
 20
2.1382622E+002
 40
8.0
100
AcDbArc
 50
2.7E+002
 51
4.5E+002
  0
LINE
  5
1e3
100
AcDbEntity
  8
1
100
AcDbLine
  6
CONTINUOUS
 62
40
 10
2.0805958E+002
 20
2.0582622E+002
 11
2.0305957E+002
 21
2.058262E+002
  0
LINE
  5
1e4
100
AcDbEntity
  8
1
100
AcDbLine
  6
CONTINUOUS
 62
40
 10
3.1905955E+002
 20
2.1482619E+002
 11
3.1730957E+002
 21
2.1482616E+002
  0
ARC
  5
1e5
100
AcDbEntity
  8
1
100
AcDbCircle
  6
CONTINUOUS
 62
40
 10
3.1730953E+002
 20
2.1682614E+002
 40
1.9999807
100
AcDbArc
 50
1.7999945E+002
 51
2.7000098E+002
  0
LINE
  5
1e6
100
AcDbEntity
  8
1
100
AcDbLine
  6
CONTINUOUS
 62
40
 10
3.1530955E+002
 20
2.1682616E+002
 11
3.1530955E+002
 21
2.2838489E+002
  0
ARC
  5
1e7
100
AcDbEntity
  8
1
100
AcDbCircle
  6
CONTINUOUS
 62
40
 10
3.1730956E+002
 20
2.2838488E+002
 40
2.0000108
100
AcDbArc
 50
9.000074E+001
 51
1.7999969E+002
  0
LINE
  5
1e8
100
AcDbEntity
  8
1
100
AcDbLine
  6
CONTINUOUS
 62
40
 10
3.1730953E+002
 20
2.3038489E+002
 11
3.2080953E+002
 21
2.3038489E+002
  0
ARC
  5
1e9
100
AcDbEntity
  8
1
100
AcDbCircle
  6
CONTINUOUS
 62
40
 10
3.2080955E+002
 20
2.2838489E+002
 40
1.9999959
100
AcDbArc
 50
3.5999988E+002
 51
4.5000055E+002
  0
LINE
  5
1ea
100
AcDbEntity
  8
1
100
AcDbLine
  6
CONTINUOUS
 62
40
 10
3.2280955E+002
 20
2.2838489E+002
 11
3.2280955E+002
 21
2.1682619E+002
  0
ARC
  5
1eb
100
AcDbEntity
  8
1
100
AcDbCircle
  6
CONTINUOUS
 62
40
 10
3.2080957E+002
 20
2.1682617E+002
 40
1.999981
100
AcDbArc
 50
2.6999946E+002
 51
3.6000054E+002
  0
LINE
  5
1ec
100
AcDbEntity
  8
1
100
AcDbLine
  6
CONTINUOUS
 62
40
 10
3.2080955E+002
 20
2.1482619E+002
 11
3.1905955E+002
 21
2.1482619E+002
  0
LINE
  5
1ed
100
AcDbEntity
  8
1
100
AcDbLine
  6
CONTINUOUS
 62
40
 10
3.1905953E+002
 20
2.6582623E+002
 11
3.2080952E+002
 21
2.6582626E+002
  0
ARC
  5
1ee
100
AcDbEntity
  8
1
100
AcDbCircle
  6
CONTINUOUS
 62
40
 10
3.2080955E+002
 20
2.6382628E+002
 40
1.9999838
100
AcDbArc
 50
3.5999954E+002
 51
4.5000089E+002
  0
LINE
  5
1ef
100
AcDbEntity
  8
1
100
AcDbLine
  6
CONTINUOUS
 62
40
 10
3.2280953E+002
 20
2.6382626E+002
 11
3.2280953E+002
 21
2.5226757E+002
  0
ARC
  5
1f0
100
AcDbEntity
  8
1
100
AcDbCircle
  6
CONTINUOUS
 62
40
 10
3.2080953E+002
 20
2.5226758E+002
 40
2.000002
100
AcDbArc
 50
2.7000006E+002
 51
3.5999994E+002
  0
LINE
  5
1f1
100
AcDbEntity
  8
1
100
AcDbLine
  6
CONTINUOUS
 62
40
 10
3.2080953E+002
 20
2.5026757E+002
 11
3.1730953E+002
 21
2.5026757E+002
  0
ARC
  5
1f2
100
AcDbEntity
  8
1
100
AcDbCircle
  6
CONTINUOUS
 62
40
 10
3.1730957E+002
 20
2.5226761E+002
 40
2.0000343
100
AcDbArc
 50
1.8000098E+002
 51
2.6999902E+002
  0
LINE
  5
1f3
100
AcDbEntity
  8
1
100
AcDbLine
  6
CONTINUOUS
 62
40
 10
3.1530953E+002
 20
2.5226757E+002
 11
3.1530953E+002
 21
2.6382623E+002
  0
ARC
  5
1f4
100
AcDbEntity
  8
1
100
AcDbCircle
  6
CONTINUOUS
 62
40
 10
3.1730955E+002
 20
2.6382622E+002
 40
2.0000131
100
AcDbArc
 50
9.0000376E+001
 51
1.7999962E+002
  0
LINE
  5
1f5
100
AcDbEntity
  8
1
100
AcDbLine
  6
CONTINUOUS
 62
40
 10
3.1730953E+002
 20
2.6582623E+002
 11
3.1905953E+002
 21
2.6582623E+002
  0
LINE
  5
1f6
100
AcDbEntity
  8
1
100
AcDbLine
  6
CONTINUOUS
 62
40
 10
1.7405959E+002
 20
2.1482623E+002
 11
1.7580958E+002
 21
2.1482623E+002
  0
ARC
  5
1f7
100
AcDbEntity
  8
1
100
AcDbCircle
  6
CONTINUOUS
 62
40
 10
1.7580955E+002
 20
2.1682626E+002
 40
2.0000277
100
AcDbArc
 50
2.7000079E+002
 51
3.5999964E+002
  0
LINE
  5
1f8
100
AcDbEntity
  8
1
100
AcDbLine
  6
CONTINUOUS
 62
40
 10
1.7780958E+002
 20
2.1682625E+002
 11
1.7780958E+002
 21
2.2838492E+002
  0
ARC
  5
1f9
100
AcDbEntity
  8
1
100
AcDbCircle
  6
CONTINUOUS
 62
40
 10
1.7580958E+002
 20
2.2838492E+002
 40
2.0000002
100
AcDbArc
 50
4.9302E-006
 51
9.0000224E+001
  0
LINE
  5
1fa
100
AcDbEntity
  8
1
100
AcDbLine
  6
CONTINUOUS
 62
40
 10
1.7580957E+002
 20
2.3038492E+002
 11
1.7230958E+002
 21
2.3038492E+002
  0
ARC
  5
1fb
100
AcDbEntity
  8
1
100
AcDbCircle
  6
CONTINUOUS
 62
40
 10
1.7230955E+002
 20
2.2838495E+002
 40
1.9999699
100
AcDbArc
 50
8.9999139E+001
 51
1.8000086E+002
  0
LINE
  5
1fc
100
AcDbEntity
  8
1
100
AcDbLine
  6
CONTINUOUS
 62
40
 10
1.7030958E+002
 20
2.2838492E+002
 11
1.7030958E+002
 21
2.1682625E+002
  0
ARC
  5
1fd
100
AcDbEntity
  8
1
100
AcDbCircle
  6
CONTINUOUS
 62
40
 10
1.7230956E+002
 20
2.1682623E+002
 40
1.9999834
100
AcDbArc
 50
1.7999952E+002
 51
2.7000005E+002
  0
LINE
  5
1fe
100
AcDbEntity
  8
1
100
AcDbLine
  6
CONTINUOUS
 62
40
 10
1.7230956E+002
 20
2.1482625E+002
 11
1.7405959E+002
 21
2.1482623E+002
  0
LINE
  5
1ff
100
AcDbEntity
  8
1
100
AcDbLine
  6
CONTINUOUS
 62
40
 10
1.7405959E+002
 20
2.6582622E+002
 11
1.7580958E+002
 21
2.6582622E+002
  0
ARC
  5
200
100
AcDbEntity
  8
1
100
AcDbCircle
  6
CONTINUOUS
 62
40
 10
1.7580955E+002
 20
2.6382619E+002
 40
2.0000264
100
AcDbArc
 50
3.27779E-004
 51
8.9999243E+001
  0
LINE
  5
201
100
AcDbEntity
  8
1
100
AcDbLine
  6
CONTINUOUS
 62
40
 10
1.7780958E+002
 20
2.638262E+002
 11
1.7780958E+002
 21
2.5226757E+002
  0
ARC
  5
202
100
AcDbEntity
  8
1
100
AcDbCircle
  6
CONTINUOUS
 62
40
 10
1.7580955E+002
 20
2.522676E+002
 40
2.0000221
100
AcDbArc
 50
2.7000041E+002
 51
3.5999937E+002
  0
LINE
  5
203
100
AcDbEntity
  8
1
100
AcDbLine
  6
CONTINUOUS
 62
40
 10
1.7580957E+002
 20
2.5026757E+002
 11
1.7230958E+002
 21
2.5026757E+002
  0
ARC
  5
204
100
AcDbEntity
  8
1
100
AcDbCircle
  6
CONTINUOUS
 62
40
 10
1.7230957E+002
 20
2.5226757E+002
 40
1.9999925
100
AcDbArc
 50
1.7999979E+002
 51
2.7000021E+002
  0
LINE
  5
205
100
AcDbEntity
  8
1
100
AcDbLine
  6
CONTINUOUS
 62
40
 10
1.7030958E+002
 20
2.5226757E+002
 11
1.7030958E+002
 21
2.638262E+002
  0
ARC
  5
206
100
AcDbEntity
  8
1
100
AcDbCircle
  6
CONTINUOUS
 62
40
 10
1.7230958E+002
 20
2.638262E+002
 40
2.0
100
AcDbArc
 50
9.000043E+001
 51
1.8E+002
  0
LINE
  5
207
100
AcDbEntity
  8
1
100
AcDbLine
  6
CONTINUOUS
 62
40
 10
1.7230956E+002
 20
2.658262E+002
 11
1.7405959E+002
 21
2.6582622E+002
  0
CIRCLE
  5
208
100
AcDbEntity
  8
1
100
AcDbCircle
  6
CONTINUOUS
 62
40
 10
2.1355956E+002
 20
2.6682622E+002
 40
8.0
  0
LINE
  5
209
100
AcDbEntity
  8
1
100
AcDbLine
  6
CONTINUOUS
 62
40
 10
2.2155961E+002
 20
2.6110622E+002
 11
2.2459737E+002
 21
2.6110622E+002
  0
ARC
  5
20a
100
AcDbEntity
  8
1
100
AcDbCircle
  6
CONTINUOUS
 62
40
 10
2.2676785E+002
 20
2.6110011E+002
 40
2.1704825
100
AcDbArc
 50
1.6801444E+002
 51
1.798389E+002
  0
ARC
  5
20b
100
AcDbEntity
  8
1
100
AcDbCircle
  6
CONTINUOUS
 62
40
 10
2.27138E+002
 20
2.6102266E+002
 40
2.5486505
100
AcDbArc
 50
1.574157E+002
 51
1.6803918E+002
  0
ARC
  5
20c
100
AcDbEntity
  8
1
100
AcDbCircle
  6
CONTINUOUS
 62
40
 10
2.274952E+002
 20
2.6087605E+002
 40
2.934768
100
AcDbArc
 50
1.4778187E+002
 51
1.574511E+002
  0
ARC
  5
20d
100
AcDbEntity
  8
1
100
AcDbCircle
  6
CONTINUOUS
 62
40
 10
2.2777444E+002
 20
2.6070258E+002
 40
3.2634936
100
AcDbArc
 50
1.3881124E+002
 51
1.4781903E+002
  0
ARC
  5
20e
100
AcDbEntity
  8
1
100
AcDbCircle
  6
CONTINUOUS
 62
40
 10
2.2795315E+002
 20
2.6054797E+002
 40
3.4998011
100
AcDbArc
 50
1.2163857E+002
 51
1.3883313E+002
  0
ARC
  5
20f
100
AcDbEntity
  8
1
100
AcDbCircle
  6
CONTINUOUS
 62
40
 10
2.2790918E+002
 20
2.6062892E+002
 40
3.4078153
100
AcDbArc
 50
1.1297174E+002
 51
1.2172306E+002
  0
ARC
  5
210
100
AcDbEntity
  8
1
100
AcDbCircle
  6
CONTINUOUS
 62
40
 10
2.2780806E+002
 20
2.6087261E+002
 40
3.1439884
100
AcDbArc
 50
1.0377341E+002
 51
1.1300832E+002
  0
LINE
  5
211
100
AcDbEntity
  8
1
100
AcDbLine
  6
CONTINUOUS
 62
40
 10
2.2705953E+002
 20
2.6392619E+002
 11
2.2705953E+002
 21
2.6982634E+002
  0
ARC
  5
212
100
AcDbEntity
  8
1
100
AcDbCircle
  6
CONTINUOUS
 62
40
 10
2.2505955E+002
 20
2.6982636E+002
 40
1.9999816
100
AcDbArc
 50
3.5999947E+002
 51
4.5000139E+002
  0
LINE
  5
213
100
AcDbEntity
  8
1
100
AcDbLine
  6
CONTINUOUS
 62
40
 10
2.250595E+002
 20
2.7182634E+002
 11
2.2456959E+002
 21
2.7182634E+002
  0
LINE
  5
214
100
AcDbEntity
  8
1
100
AcDbLine
  6
CONTINUOUS
 62
40
 10
2.2456959E+002
 20
2.7182634E+002
 11
2.2305958E+002
 21
2.7182634E+002
  0
LINE
  5
215
100
AcDbEntity
  8
1
100
AcDbLine
  6
CONTINUOUS
 62
40
 10
2.2305958E+002
 20
2.7182634E+002
 11
2.1980445E+002
 21
2.7182634E+002
  0
LINE
  5
216
100
AcDbEntity
  8
1
100
AcDbLine
  6
CONTINUOUS
 62
40
 10
3.2255953E+002
 20
2.3743939E+002
 11
3.2005953E+002
 21
2.3888275E+002
  0
LINE
  5
217
100
AcDbEntity
  8
1
100
AcDbLine
  6
CONTINUOUS
 62
40
 10
3.2005953E+002
 20
2.3888275E+002
 11
3.2005953E+002
 21
2.4176953E+002
  0
LINE
  5
218
100
AcDbEntity
  8
1
100
AcDbLine
  6
CONTINUOUS
 62
40
 10
3.2005953E+002
 20
2.4176953E+002
 11
3.2255953E+002
 21
2.4321289E+002
  0
LINE
  5
219
100
AcDbEntity
  8
1
100
AcDbLine
  6
CONTINUOUS
 62
40
 10
3.2255953E+002
 20
2.4321289E+002
 11
3.2505953E+002
 21
2.4176953E+002
  0
LINE
  5
21a
100
AcDbEntity
  8
1
100
AcDbLine
  6
CONTINUOUS
 62
40
 10
3.2505953E+002
 20
2.4176953E+002
 11
3.2505953E+002
 21
2.3888275E+002
  0
LINE
  5
21b
100
AcDbEntity
  8
1
100
AcDbLine
  6
CONTINUOUS
 62
40
 10
3.2505953E+002
 20
2.3888275E+002
 11
3.2255953E+002
 21
2.3743939E+002
  0
ARC
  5
21c
100
AcDbEntity
  8
1
100
AcDbCircle
  6
CONTINUOUS
 62
40
 10
3.1305955E+002
 20
2.3372383E+002
 40
2.0000118
100
AcDbArc
 50
1.8000034E+002
 51
2.6999966E+002
  0
LINE
  5
21d
100
AcDbEntity
  8
1
100
AcDbLine
  6
CONTINUOUS
 62
40
 10
3.1105953E+002
 20
2.3372382E+002
 11
3.1105953E+002
 21
2.4672381E+002
  0
ARC
  5
21e
100
AcDbEntity
  8
1
100
AcDbCircle
  6
CONTINUOUS
 62
40
 10
3.1305956E+002
 20
2.4672379E+002
 40
2.000022
100
AcDbArc
 50
9.0000631E+001
 51
1.7999937E+002
  0
LINE
  5
21f
100
AcDbEntity
  8
1
100
AcDbLine
  6
CONTINUOUS
 62
40
 10
3.1305953E+002
 20
2.4872381E+002
 11
3.2505953E+002
 21
2.4872381E+002
  0
ARC
  5
220
100
AcDbEntity
  8
1
100
AcDbCircle
  6
CONTINUOUS
 62
40
 10
3.2505955E+002
 20
2.4672383E+002
 40
1.9999848
100
AcDbArc
 50
3.5999957E+002
 51
4.5000043E+002
  0
LINE
  5
221
100
AcDbEntity
  8
1
100
AcDbLine
  6
CONTINUOUS
 62
40
 10
3.2705953E+002
 20
2.4672381E+002
 11
3.2705953E+002
 21
2.3372382E+002
  0
ARC
  5
222
100
AcDbEntity
  8
1
100
AcDbCircle
  6
CONTINUOUS
 62
40
 10
3.2505955E+002
 20
2.3372381E+002
 40
1.99999
100
AcDbArc
 50
2.6999971E+002
 51
3.6000029E+002
  0
LINE
  5
223
100
AcDbEntity
  8
1
100
AcDbLine
  6
CONTINUOUS
 62
40
 10
3.2505953E+002
 20
2.3172382E+002
 11
3.1305953E+002
 21
2.3172382E+002
  0
LINE
  5
224
100
AcDbEntity
  8
1
100
AcDbLine
  6
CONTINUOUS
 62
40
 10
2.2405955E+002
 20
2.403262E+002
 11
2.2405955E+002
 21
2.4682619E+002
  0
ARC
  5
225
100
AcDbEntity
  8
1
100
AcDbCircle
  6
CONTINUOUS
 62
40
 10
2.2605953E+002
 20
2.4682622E+002
 40
1.9999722
100
AcDbArc
 50
9.0000062E+001
 51
1.800008E+002
  0
LINE
  5
226
100
AcDbEntity
  8
1
100
AcDbLine
  6
CONTINUOUS
 62
40
 10
2.2605952E+002
 20
2.4882619E+002
 11
2.6205955E+002
 21
2.4882618E+002
  0
ARC
  5
227
100
AcDbEntity
  8
1
100
AcDbCircle
  6
CONTINUOUS
 62
40
 10
2.6205954E+002
 20
2.4682617E+002
 40
2.0000052
100
AcDbArc
 50
1.492384E-004
 51
8.9999851E+001
  0
LINE
  5
228
100
AcDbEntity
  8
1
100
AcDbLine
  6
CONTINUOUS
 62
40
 10
2.6405955E+002
 20
2.4682618E+002
 11
2.6405955E+002
 21
2.3382618E+002
  0
ARC
  5
229
100
AcDbEntity
  8
1
100
AcDbCircle
  6
CONTINUOUS
 62
40
 10
2.6205952E+002
 20
2.3382621E+002
 40
2.0000222
100
AcDbArc
 50
2.7000021E+002
 51
3.5999936E+002
  0
LINE
  5
22a
100
AcDbEntity
  8
1
100
AcDbLine
  6
CONTINUOUS
 62
40
 10
2.6205953E+002
 20
2.3182618E+002
 11
2.2605955E+002
 21
2.3182623E+002
  0
ARC
  5
22b
100
AcDbEntity
  8
1
100
AcDbCircle
  6
CONTINUOUS
 62
40
 10
2.2605959E+002
 20
2.3382627E+002
 40
2.0000355
100
AcDbArc
 50
1.8000102E+002
 51
2.6999898E+002
  0
LINE
  5
22c
100
AcDbEntity
  8
1
100
AcDbLine
  6
CONTINUOUS
 62
40
 10
2.2405955E+002
 20
2.3382623E+002
 11
2.2405955E+002
 21
2.403262E+002
  0
LINE
  5
22d
100
AcDbEntity
  8
1
100
AcDbLine
  6
CONTINUOUS
 62
40
 10
1.7860924E+002
 20
2.0982623E+002
 11
1.7905957E+002
 21
2.0982623E+002
  0
ARC
  5
22e
100
AcDbEntity
  8
1
100
AcDbCircle
  6
CONTINUOUS
 62
40
 10
1.7905955E+002
 20
2.1182623E+002
 40
1.9999971
100
AcDbArc
 50
2.7000058E+002
 51
3.6000008E+002
  0
LINE
  5
22f
100
AcDbEntity
  8
1
100
AcDbLine
  6
CONTINUOUS
 62
40
 10
1.8105955E+002
 20
2.1182623E+002
 11
1.8105955E+002
 21
2.2838492E+002
  0
ARC
  5
230
100
AcDbEntity
  8
1
100
AcDbCircle
  6
CONTINUOUS
 62
40
 10
1.8305953E+002
 20
2.2838493E+002
 40
1.9999889
100
AcDbArc
 50
8.9999682E+001
 51
1.8000032E+002
  0
LINE
  5
231
100
AcDbEntity
  8
1
100
AcDbLine
  6
CONTINUOUS
 62
40
 10
1.8305955E+002
 20
2.3038492E+002
 11
2.9123991E+002
 21
2.3038492E+002
  0
LINE
  5
232
100
AcDbEntity
  8
1
100
AcDbLine
  6
CONTINUOUS
 62
40
 10
2.9123991E+002
 20
2.3038492E+002
 11
3.1105953E+002
 21
2.3038489E+002
  0
ARC
  5
233
100
AcDbEntity
  8
1
100
AcDbCircle
  6
CONTINUOUS
 62
40
 10
3.1105955E+002
 20
2.2838491E+002
 40
1.9999811
100
AcDbArc
 50
3.5999946E+002
 51
4.5000054E+002
  0
LINE
  5
234
100
AcDbEntity
  8
1
100
AcDbLine
  6
CONTINUOUS
 62
40
 10
3.1305953E+002
 20
2.2838489E+002
 11
3.1305952E+002
 21
2.098262E+002
  0
LINE
  5
235
100
AcDbEntity
  8
1
100
AcDbLine
  6
CONTINUOUS
 62
40
 10
3.1305952E+002
 20
2.098262E+002
 11
3.2505952E+002
 21
2.098262E+002
  0
LINE
  5
236
100
AcDbEntity
  8
1
100
AcDbLine
  6
CONTINUOUS
 62
40
 10
3.2505952E+002
 20
2.098262E+002
 11
3.2505953E+002
 21
2.2838489E+002
  0
ARC
  5
237
100
AcDbEntity
  8
1
100
AcDbCircle
  6
CONTINUOUS
 62
40
 10
3.2705953E+002
 20
2.283849E+002
 40
1.9999903
100
AcDbArc
 50
8.9999721E+001
 51
1.8000028E+002
  0
LINE
  5
238
100
AcDbEntity
  8
1
100
AcDbLine
  6
CONTINUOUS
 62
40
 10
3.2705953E+002
 20
2.3038489E+002
 11
3.3305952E+002
 21
2.3038489E+002
  0
ARC
  5
239
100
AcDbEntity
  8
1
100
AcDbCircle
  6
CONTINUOUS
 62
40
 10
3.3305952E+002
 20
2.3238489E+002
 40
1.9999982
100
AcDbArc
 50
2.6999995E+002
 51
3.6000005E+002
  0
LINE
  5
23a
100
AcDbEntity
  8
1
100
AcDbLine
  6
CONTINUOUS
 62
40
 10
3.3505952E+002
 20
2.3238489E+002
 11
3.3505952E+002
 21
2.4032622E+002
  0
LINE
  5
23b
100
AcDbEntity
  8
1
100
AcDbLine
  6
CONTINUOUS
 62
40
 10
2.2705953E+002
 20
2.1632617E+002
 11
2.9123991E+002
 21
2.1632617E+002
  0
LINE
  5
23c
100
AcDbEntity
  8
1
100
AcDbLine
  6
CONTINUOUS
 62
40
 10
2.9123991E+002
 20
2.1632617E+002
 11
2.981956E+002
 21
2.163262E+002
  0
LINE
  5
23d
100
AcDbEntity
  8
1
100
AcDbLine
  6
CONTINUOUS
 62
40
 10
2.981956E+002
 20
2.163262E+002
 11
3.0805955E+002
 21
2.163262E+002
  0
ARC
  5
23e
100
AcDbEntity
  8
1
100
AcDbCircle
  6
CONTINUOUS
 62
40
 10
3.0805956E+002
 20
2.1432619E+002
 40
2.0000165
100
AcDbArc
 50
4.732624E-004
 51
9.0000415E+001
  0
LINE
  5
23f
100
AcDbEntity
  8
1
100
AcDbLine
  6
CONTINUOUS
 62
40
 10
3.1005958E+002
 20
2.143262E+002
 11
3.1005958E+002
 21
2.133262E+002
  0
LINE
  5
240
100
AcDbEntity
  8
1
100
AcDbLine
  6
CONTINUOUS
 62
40
 10
3.1005958E+002
 20
2.133262E+002
 11
3.1005953E+002
 21
2.098262E+002
  0
LINE
  5
241
100
AcDbEntity
  8
1
100
AcDbLine
  6
CONTINUOUS
 62
40
 10
3.1005953E+002
 20
2.098262E+002
 11
3.3205949E+002
 21
2.098262E+002
  0
ARC
  5
242
100
AcDbEntity
  8
1
100
AcDbCircle
  6
CONTINUOUS
 62
40
 10
3.3205951E+002
 20
2.088262E+002
 40
1.0000077
100
AcDbArc
 50
4.39815E-004
 51
9.0001336E+001
  0
LINE
  5
243
100
AcDbEntity
  8
1
100
AcDbLine
  6
CONTINUOUS
 62
40
 10
3.3305952E+002
 20
2.088262E+002
 11
3.3305952E+002
 21
2.083262E+002
  0
ARC
  5
244
100
AcDbEntity
  8
1
100
AcDbCircle
  6
CONTINUOUS
 62
40
 10
3.3405951E+002
 20
2.083262E+002
 40
9.9999225E-001
100
AcDbArc
 50
1.7999956E+002
 51
2.7000044E+002
  0
LINE
  5
245
100
AcDbEntity
  8
1
100
AcDbLine
  6
CONTINUOUS
 62
40
 10
3.3405952E+002
 20
2.073262E+002
 11
3.3605949E+002
 21
2.073262E+002
  0
ARC
  5
246
100
AcDbEntity
  8
1
100
AcDbCircle
  6
CONTINUOUS
 62
40
 10
3.360595E+002
 20
2.093262E+002
 40
1.9999927
100
AcDbArc
 50
2.6999979E+002
 51
3.6000021E+002
  0
LINE
  5
247
100
AcDbEntity
  8
1
100
AcDbLine
  6
CONTINUOUS
 62
40
 10
3.3805949E+002
 20
2.093262E+002
 11
3.380595E+002
 21
2.2111653E+002
  0
LINE
  5
248
100
AcDbEntity
  8
1
100
AcDbLine
  6
CONTINUOUS
 62
40
 10
3.380595E+002
 20
2.2111653E+002
 11
3.3555961E+002
 21
2.2111652E+002
  0
LINE
  5
249
100
AcDbEntity
  8
1
100
AcDbLine
  6
CONTINUOUS
 62
40
 10
3.3555961E+002
 20
2.2111652E+002
 11
3.3555961E+002
 21
2.2243771E+002
  0
LINE
  5
24a
100
AcDbEntity
  8
1
100
AcDbLine
  6
CONTINUOUS
 62
40
 10
3.3555961E+002
 20
2.2243771E+002
 11
3.2720315E+002
 21
2.2243771E+002
  0
LINE
  5
24b
100
AcDbEntity
  8
1
100
AcDbLine
  6
CONTINUOUS
 62
40
 10
3.3405952E+002
 20
2.073262E+002
 11
3.2205955E+002
 21
2.073262E+002
  0
LINE
  5
24c
100
AcDbEntity
  8
1
100
AcDbLine
  6
CONTINUOUS
 62
40
 10
3.1605957E+002
 20
2.073262E+002
 11
3.1205955E+002
 21
2.073262E+002
  0
ARC
  5
24d
100
AcDbEntity
  8
1
100
AcDbCircle
  6
CONTINUOUS
 62
40
 10
3.1205952E+002
 20
2.0932617E+002
 40
1.9999696
100
AcDbArc
 50
1.7999913E+002
 51
2.7000087E+002
  0
LINE
  5
24e
100
AcDbEntity
  8
1
100
AcDbLine
  6
CONTINUOUS
 62
40
 10
3.1005955E+002
 20
2.093262E+002
 11
3.1005953E+002
 21
2.2043771E+002
  0
LINE
  5
24f
100
AcDbEntity
  8
1
100
AcDbLine
  6
CONTINUOUS
 62
40
 10
3.1005953E+002
 20
2.2043771E+002
 11
3.1005953E+002
 21
2.2093775E+002
  0
ARC
  5
250
100
AcDbEntity
  8
1
100
AcDbCircle
  6
CONTINUOUS
 62
40
 10
3.122152E+002
 20
2.2094392E+002
 40
2.1556765
100
AcDbArc
 50
1.6472706E+002
 51
1.8016425E+002
  0
ARC
  5
251
100
AcDbEntity
  8
1
100
AcDbCircle
  6
CONTINUOUS
 62
40
 10
3.1191169E+002
 20
2.2102501E+002
 40
1.8415201
100
AcDbArc
 50
1.5609963E+002
 51
1.6467322E+002
  0
ARC
  5
252
100
AcDbEntity
  8
1
100
AcDbCircle
  6
CONTINUOUS
 62
40
 10
3.1163256E+002
 20
2.2115033E+002
 40
1.535557
100
AcDbArc
 50
1.4647597E+002
 51
1.5615529E+002
  0
ARC
  5
253
100
AcDbEntity
  8
1
100
AcDbCircle
  6
CONTINUOUS
 62
40
 10
3.1137564E+002
 20
2.2132203E+002
 40
1.2265521
100
AcDbArc
 50
1.3528901E+002
 51
1.4653397E+002
  0
ARC
  5
254
100
AcDbEntity
  8
1
100
AcDbCircle
  6
CONTINUOUS
 62
40
 10
3.1122892E+002
 20
2.2146326E+002
 40
1.0229255
100
AcDbArc
 50
1.2878577E+002
 51
1.3512909E+002
  0
ARC
  5
255
100
AcDbEntity
  8
1
100
AcDbCircle
  6
CONTINUOUS
 62
40
 10
3.1115695E+002
 20
2.2155287E+002
 40
9.0798771E-001
100
AcDbArc
 50
1.2191971E+002
 51
1.2878754E+002
  0
ARC
  5
256
100
AcDbEntity
  8
1
100
AcDbCircle
  6
CONTINUOUS
 62
40
 10
3.1110718E+002
 20
2.2163266E+002
 40
8.1394914E-001
100
AcDbArc
 50
1.1452945E+002
 51
1.2191636E+002
  0
ARC
  5
257
100
AcDbEntity
  8
1
100
AcDbCircle
  6
CONTINUOUS
 62
40
 10
3.1107742E+002
 20
2.2169757E+002
 40
7.4254349E-001
100
AcDbArc
 50
1.0666647E+002
 51
1.1451938E+002
  0
ARC
  5
258
100
AcDbEntity
  8
1
100
AcDbCircle
  6
CONTINUOUS
 62
40
 10
3.1106071E+002
 20
2.2175523E+002
 40
6.8252096E-001
100
AcDbArc
 50
9.0097658E+001
 51
1.0671093E+002
  0
LINE
  5
259
100
AcDbEntity
  8
1
100
AcDbLine
  6
CONTINUOUS
 62
40
 10
3.1105955E+002
 20
2.2243775E+002
 11
3.1116359E+002
 21
2.2243775E+002
  0
LINE
  5
25a
100
AcDbEntity
  8
1
100
AcDbLine
  6
CONTINUOUS
 62
40
 10
3.253287E+002
 20
2.2938702E+002
 11
3.2720315E+002
 21
2.2243771E+002
  0
LINE
  5
25b
100
AcDbEntity
  8
1
100
AcDbLine
  6
CONTINUOUS
 62
40
 10
3.2720315E+002
 20
2.2243771E+002
 11
3.2720315E+002
 21
2.098262E+002
  0
LINE
  5
25c
100
AcDbEntity
  8
1
100
AcDbLine
  6
CONTINUOUS
 62
40
 10
3.2720315E+002
 20
2.098262E+002
 11
3.1115366E+002
 21
2.098262E+002
  0
LINE
  5
25d
100
AcDbEntity
  8
1
100
AcDbLine
  6
CONTINUOUS
 62
40
 10
3.1115366E+002
 20
2.2239609E+002
 11
3.1281223E+002
 21
2.2934829E+002
  0
LINE
  5
25e
100
AcDbEntity
  8
1
100
AcDbLine
  6
CENTERLINE
 62
1
 10
3.374057E+002
 20
2.4032623E+002
 11
3.3861912E+002
 21
2.4032623E+002
  0
CIRCLE
  5
25f
100
AcDbEntity
  8
1
100
AcDbCircle
  6
CONTINUOUS
 62
40
 10
3.0505955E+002
 20
2.123262E+002
 40
2.5
  0
LINE
  5
260
100
AcDbEntity
  8
1
100
AcDbLine
  6
CONTINUOUS
 62
40
 10
3.0484422E+002
 20
2.073262E+002
 11
3.1205955E+002
 21
2.073262E+002
  0
LINE
  5
261
100
AcDbEntity
  8
1
100
AcDbLine
  6
CONTINUOUS
 62
40
 10
3.1205955E+002
 20
2.073262E+002
 11
3.0455955E+002
 21
2.073262E+002
  0
LINE
  5
262
100
AcDbEntity
  8
1
100
AcDbLine
  6
CONTINUOUS
 62
40
 10
3.0455955E+002
 20
2.073262E+002
 11
3.015596E+002
 21
2.073262E+002
  0
LINE
  5
263
100
AcDbEntity
  8
1
100
AcDbLine
  6
CENTERLINE
 62
1
 10
3.5994033E+002
 20
2.133262E+002
 11
3.5894033E+002
 21
2.133262E+002
  0
LINE
  5
264
100
AcDbEntity
  8
1
100
AcDbLine
  6
CENTERLINE
 62
1
 10
3.5894033E+002
 20
2.133262E+002
 11
3.358637E+002
 21
2.133262E+002
  0
LINE
  5
265
100
AcDbEntity
  8
1
100
AcDbLine
  6
CENTERLINE
 62
1
 10
3.1905955E+002
 20
1.9509844E+002
 11
3.1905955E+002
 21
2.1123242E+002
  0
LINE
  5
266
100
AcDbEntity
  8
1
100
AcDbLine
  6
CENTERLINE
 62
1
 10
3.1905955E+002
 20
2.1123242E+002
 11
3.1905955E+002
 21
2.1223242E+002
  0
LINE
  5
267
100
AcDbEntity
  8
1
100
AcDbLine
  6
CONTINUOUS
 62
40
 10
3.3555961E+002
 20
2.2243765E+002
 11
3.3555961E+002
 21
2.403262E+002
  0
LINE
  5
268
100
AcDbEntity
  8
1
100
AcDbLine
  6
CONTINUOUS
 62
40
 10
3.111636E+002
 20
2.5821471E+002
 11
3.1105957E+002
 21
2.5821471E+002
  0
ARC
  5
269
100
AcDbEntity
  8
1
100
AcDbCircle
  6
CONTINUOUS
 62
40
 10
3.110607E+002
 20
2.588972E+002
 40
6.8249681E-001
100
AcDbArc
 50
2.5329083E+002
 51
2.6990467E+002
  0
ARC
  5
26a
100
AcDbEntity
  8
1
100
AcDbCircle
  6
CONTINUOUS
 62
40
 10
3.110774E+002
 20
2.5895484E+002
 40
7.4250455E-001
100
AcDbArc
 50
2.45482E+002
 51
2.5333526E+002
  0
ARC
  5
26b
100
AcDbEntity
  8
1
100
AcDbCircle
  6
CONTINUOUS
 62
40
 10
3.1110716E+002
 20
2.5901974E+002
 40
8.1390297E-001
100
AcDbArc
 50
2.3808466E+002
 51
2.4547193E+002
  0
ARC
  5
26c
100
AcDbEntity
  8
1
100
AcDbCircle
  6
CONTINUOUS
 62
40
 10
3.1115692E+002
 20
2.5909953E+002
 40
9.0793673E-001
100
AcDbArc
 50
2.3121315E+002
 51
2.3808131E+002
  0
ARC
  5
26d
100
AcDbEntity
  8
1
100
AcDbCircle
  6
CONTINUOUS
 62
40
 10
3.1122889E+002
 20
2.5918914E+002
 40
1.0228726
100
AcDbArc
 50
2.2487132E+002
 51
2.3121492E+002
  0
ARC
  5
26e
100
AcDbEntity
  8
1
100
AcDbCircle
  6
CONTINUOUS
 62
40
 10
3.1137562E+002
 20
2.5933038E+002
 40
1.2265031
100
AcDbArc
 50
2.1346601E+002
 51
2.2471138E+002
  0
ARC
  5
26f
100
AcDbEntity
  8
1
100
AcDbCircle
  6
CONTINUOUS
 62
40
 10
3.1163255E+002
 20
2.5950208E+002
 40
1.5355264
100
AcDbArc
 50
2.0384446E+002
 51
2.13524E+002
  0
ARC
  5
270
100
AcDbEntity
  8
1
100
AcDbCircle
  6
CONTINUOUS
 62
40
 10
3.119117E+002
 20
2.5962742E+002
 40
1.8415228
100
AcDbArc
 50
1.9532646E+002
 51
2.0390012E+002
  0
ARC
  5
271
100
AcDbEntity
  8
1
100
AcDbCircle
  6
CONTINUOUS
 62
40
 10
3.1221529E+002
 20
2.5970852E+002
 40
2.1557442
100
AcDbArc
 50
1.7983556E+002
 51
1.9527259E+002
  0
LINE
  5
272
100
AcDbEntity
  8
1
100
AcDbLine
  6
CONTINUOUS
 62
40
 10
3.1005955E+002
 20
2.5971471E+002
 11
3.1005955E+002
 21
2.6021474E+002
  0
LINE
  5
273
100
AcDbEntity
  8
1
100
AcDbLine
  6
CONTINUOUS
 62
40
 10
3.1005955E+002
 20
2.6021474E+002
 11
3.1005955E+002
 21
2.7132617E+002
  0
ARC
  5
274
100
AcDbEntity
  8
1
100
AcDbCircle
  6
CONTINUOUS
 62
40
 10
3.1205955E+002
 20
2.7132618E+002
 40
1.9999968
100
AcDbArc
 50
8.9999908E+001
 51
1.8000009E+002
  0
LINE
  5
275
100
AcDbEntity
  8
1
100
AcDbLine
  6
CONTINUOUS
 62
40
 10
3.1205955E+002
 20
2.7332617E+002
 11
3.1328606E+002
 21
2.7332617E+002
  0
LINE
  5
276
100
AcDbEntity
  8
1
100
AcDbLine
  6
CONTINUOUS
 62
40
 10
3.1328606E+002
 20
2.7332617E+002
 11
3.1607883E+002
 21
2.7332617E+002
  0
LINE
  5
277
100
AcDbEntity
  8
1
100
AcDbLine
  6
CONTINUOUS
 62
40
 10
3.2207883E+002
 20
2.7332617E+002
 11
3.2483307E+002
 21
2.733262E+002
  0
LINE
  5
278
100
AcDbEntity
  8
1
100
AcDbLine
  6
CONTINUOUS
 62
40
 10
3.2483307E+002
 20
2.733262E+002
 11
3.3405953E+002
 21
2.7332622E+002
  0
LINE
  5
279
100
AcDbEntity
  8
1
100
AcDbLine
  6
CONTINUOUS
 62
40
 10
3.1281225E+002
 20
2.5130416E+002
 11
3.1115368E+002
 21
2.5825636E+002
  0
LINE
  5
27a
100
AcDbEntity
  8
1
100
AcDbLine
  6
CONTINUOUS
 62
40
 10
3.1115368E+002
 20
2.7082624E+002
 11
3.2720316E+002
 21
2.7082624E+002
  0
LINE
  5
27b
100
AcDbEntity
  8
1
100
AcDbLine
  6
CONTINUOUS
 62
40
 10
3.2720316E+002
 20
2.7082624E+002
 11
3.2720316E+002
 21
2.5821473E+002
  0
LINE
  5
27c
100
AcDbEntity
  8
1
100
AcDbLine
  6
CONTINUOUS
 62
40
 10
3.2720316E+002
 20
2.5821473E+002
 11
3.2532871E+002
 21
2.5126543E+002
  0
LINE
  5
27d
100
AcDbEntity
  8
1
100
AcDbLine
  6
CONTINUOUS
 62
40
 10
1.7860924E+002
 20
2.7082625E+002
 11
1.7905957E+002
 21
2.7082625E+002
  0
ARC
  5
27e
100
AcDbEntity
  8
1
100
AcDbCircle
  6
CONTINUOUS
 62
40
 10
1.7905954E+002
 20
2.6882624E+002
 40
2.0000103
100
AcDbArc
 50
2.945452E-004
 51
8.9999047E+001
  0
LINE
  5
27f
100
AcDbEntity
  8
1
100
AcDbLine
  6
CONTINUOUS
 62
40
 10
1.8105955E+002
 20
2.6882625E+002
 11
1.8105955E+002
 21
2.5226757E+002
  0
ARC
  5
280
100
AcDbEntity
  8
1
100
AcDbCircle
  6
CONTINUOUS
 62
40
 10
1.8305956E+002
 20
2.5226759E+002
 40
2.0000115
100
AcDbArc
 50
1.8000033E+002
 51
2.6999967E+002
  0
LINE
  5
281
100
AcDbEntity
  8
1
100
AcDbLine
  6
CONTINUOUS
 62
40
 10
1.8305955E+002
 20
2.5026757E+002
 11
3.1105955E+002
 21
2.5026757E+002
  0
ARC
  5
282
100
AcDbEntity
  8
1
100
AcDbCircle
  6
CONTINUOUS
 62
40
 10
3.1105954E+002
 20
2.5226759E+002
 40
2.0000126
100
AcDbArc
 50
2.7000036E+002
 51
3.5999964E+002
  0
LINE
  5
283
100
AcDbEntity
  8
1
100
AcDbLine
  6
CONTINUOUS
 62
40
 10
3.1305955E+002
 20
2.5226757E+002
 11
3.1305953E+002
 21
2.7082625E+002
  0
LINE
  5
284
100
AcDbEntity
  8
1
100
AcDbLine
  6
CONTINUOUS
 62
40
 10
3.1305953E+002
 20
2.7082625E+002
 11
3.2505953E+002
 21
2.7082625E+002
  0
LINE
  5
285
100
AcDbEntity
  8
1
100
AcDbLine
  6
CONTINUOUS
 62
40
 10
3.2505953E+002
 20
2.7082625E+002
 11
3.2505955E+002
 21
2.5226757E+002
  0
ARC
  5
286
100
AcDbEntity
  8
1
100
AcDbCircle
  6
CONTINUOUS
 62
40
 10
3.2705957E+002
 20
2.5226759E+002
 40
2.0000155
100
AcDbArc
 50
1.8000044E+002
 51
2.6999956E+002
  0
LINE
  5
287
100
AcDbEntity
  8
1
100
AcDbLine
  6
CONTINUOUS
 62
40
 10
3.2705955E+002
 20
2.5026757E+002
 11
3.3305952E+002
 21
2.5026757E+002
  0
ARC
  5
288
100
AcDbEntity
  8
1
100
AcDbCircle
  6
CONTINUOUS
 62
40
 10
3.3305953E+002
 20
2.4826758E+002
 40
1.9999911
100
AcDbArc
 50
3.5999975E+002
 51
4.5000025E+002
  0
LINE
  5
289
100
AcDbEntity
  8
1
100
AcDbLine
  6
CONTINUOUS
 62
40
 10
3.3505952E+002
 20
2.4826757E+002
 11
3.3505952E+002
 21
2.4032622E+002
  0
LINE
  5
28a
100
AcDbEntity
  8
1
100
AcDbLine
  6
CONTINUOUS
 62
40
 10
1.8105955E+002
 20
2.6456114E+002
 11
1.8105953E+002
 21
2.6150618E+002
  0
ARC
  5
28b
100
AcDbEntity
  8
1
100
AcDbCircle
  6
CONTINUOUS
 62
40
 10
1.8305954E+002
 20
2.6150619E+002
 40
2.0000063
100
AcDbArc
 50
1.8000018E+002
 51
2.6999982E+002
  0
LINE
  5
28c
100
AcDbEntity
  8
1
100
AcDbLine
  6
CONTINUOUS
 62
40
 10
1.8305953E+002
 20
2.5950618E+002
 11
2.0355956E+002
 21
2.5950618E+002
  0
ARC
  5
28d
100
AcDbEntity
  8
1
100
AcDbCircle
  6
CONTINUOUS
 62
40
 10
2.0355957E+002
 20
2.6150617E+002
 40
1.9999914
100
AcDbArc
 50
2.6999975E+002
 51
3.6000025E+002
  0
LINE
  5
28e
100
AcDbEntity
  8
1
100
AcDbLine
  6
CONTINUOUS
 62
40
 10
2.0555956E+002
 20
2.6150618E+002
 11
2.0555956E+002
 21
2.6682622E+002
  0
ARC
  5
28f
100
AcDbEntity
  8
1
100
AcDbCircle
  6
CONTINUOUS
 62
40
 10
1.8305952E+002
 20
2.6885616E+002
 40
1.9999777
100
AcDbArc
 50
1.7999936E+002
 51
2.7000044E+002
  0
LINE
  5
290
100
AcDbEntity
  8
1
100
AcDbLine
  6
CONTINUOUS
 62
40
 10
1.8305954E+002
 20
2.6685619E+002
 11
2.0376508E+002
 21
2.6685619E+002
  0
ARC
  5
291
100
AcDbEntity
  8
1
100
AcDbCircle
  6
CONTINUOUS
 62
40
 10
2.0376543E+002
 20
2.6886106E+002
 40
2.0048727
100
AcDbArc
 50
2.6998977E+002
 51
3.0908882E+002
  0
ARC
  5
292
100
AcDbEntity
  8
1
100
AcDbCircle
  6
CONTINUOUS
 62
40
 10
2.0376991E+002
 20
2.6885555E+002
 40
1.9977709
100
AcDbArc
 50
3.090888E+002
 51
3.4828034E+002
  0
LINE
  5
293
100
AcDbEntity
  8
1
100
AcDbLine
  6
CONTINUOUS
 62
40
 10
1.8105955E+002
 20
2.1697675E+002
 11
1.8105955E+002
 21
2.1914624E+002
  0
ARC
  5
294
100
AcDbEntity
  8
1
100
AcDbCircle
  6
CONTINUOUS
 62
40
 10
1.8305954E+002
 20
2.1914626E+002
 40
1.9999828
100
AcDbArc
 50
8.9999508E+001
 51
1.8000049E+002
  0
LINE
  5
295
100
AcDbEntity
  8
1
100
AcDbLine
  6
CONTINUOUS
 62
40
 10
1.8305955E+002
 20
2.2114624E+002
 11
1.9305955E+002
 21
2.2114623E+002
  0
ARC
  5
296
100
AcDbEntity
  8
1
100
AcDbCircle
  6
CONTINUOUS
 62
40
 10
1.9305953E+002
 20
2.1914622E+002
 40
2.0000062
100
AcDbArc
 50
1.786679E-004
 51
8.9999621E+001
  0
LINE
  5
297
100
AcDbEntity
  8
1
100
AcDbLine
  6
CONTINUOUS
 62
40
 10
1.9505954E+002
 20
2.1914623E+002
 11
1.9505956E+002
 21
2.138262E+002
  0
LINE
  5
298
100
AcDbEntity
  8
1
100
AcDbLine
  6
CONTINUOUS
 62
40
 10
1.7815224E+002
 20
2.0982617E+002
 11
1.7905955E+002
 21
2.0982617E+002
  0
ARC
  5
299
100
AcDbEntity
  8
1
100
AcDbCircle
  6
CONTINUOUS
 62
40
 10
1.7905956E+002
 20
2.1182617E+002
 40
1.9999967
100
AcDbArc
 50
2.6999991E+002
 51
3.6000009E+002
  0
LINE
  5
29a
100
AcDbEntity
  8
1
100
AcDbLine
  6
CONTINUOUS
 62
40
 10
2.2459736E+002
 20
2.6110622E+002
 11
2.2459734E+002
 21
2.6982633E+002
  0
ARC
  5
29b
100
AcDbEntity
  8
1
100
AcDbCircle
  6
CONTINUOUS
 62
40
 10
2.3348157E+002
 20
2.6984195E+002
 40
8.8842409
100
AcDbArc
 50
1.7707836E+002
 51
1.8010075E+002
  0
ARC
  5
29c
100
AcDbEntity
  8
1
100
AcDbCircle
  6
CONTINUOUS
 62
40
 10
2.3041021E+002
 20
2.7000371E+002
 40
5.8086325
100
AcDbArc
 50
1.7311397E+002
 51
1.7712772E+002
  0
ARC
  5
29d
100
AcDbEntity
  8
1
100
AcDbCircle
  6
CONTINUOUS
 62
40
 10
2.2822162E+002
 20
2.702732E+002
 40
3.6035189
100
AcDbArc
 50
1.6767501E+002
 51
1.7319572E+002
  0
ARC
  5
29e
100
AcDbEntity
  8
1
100
AcDbCircle
  6
CONTINUOUS
 62
40
 10
2.2676762E+002
 20
2.7059597E+002
 40
2.1141443
100
AcDbArc
 50
1.5992789E+002
 51
1.6780968E+002
  0
ARC
  5
29f
100
AcDbEntity
  8
1
100
AcDbCircle
  6
CONTINUOUS
 62
40
 10
2.2607685E+002
 20
2.7084224E+002
 40
1.380817
100
AcDbArc
 50
1.5446478E+002
 51
1.5968886E+002
  0
ARC
  5
2a0
100
AcDbEntity
  8
1
100
AcDbCircle
  6
CONTINUOUS
 62
40
 10
2.2576121E+002
 20
2.7099356E+002
 40
1.0307805
100
AcDbArc
 50
1.4814289E+002
 51
1.5449112E+002
  0
ARC
  5
2a1
100
AcDbEntity
  8
1
100
AcDbCircle
  6
CONTINUOUS
 62
40
 10
2.2554575E+002
 20
2.7112777E+002
 40
7.7693551E-001
100
AcDbArc
 50
1.4049902E+002
 51
1.481632E+002
  0
ARC
  5
2a2
100
AcDbEntity
  8
1
100
AcDbCircle
  6
CONTINUOUS
 62
40
 10
2.2541187E+002
 20
2.7123813E+002
 40
6.0344061E-001
100
AcDbArc
 50
1.3142994E+002
 51
1.4049866E+002
  0
ARC
  5
2a3
100
AcDbEntity
  8
1
100
AcDbCircle
  6
CONTINUOUS
 62
40
 10
2.2534099E+002
 20
2.7131792E+002
 40
4.967124E-001
100
AcDbArc
 50
1.2106815E+002
 51
1.3139064E+002
  0
ARC
  5
2a4
100
AcDbEntity
  8
1
100
AcDbCircle
  6
CONTINUOUS
 62
40
 10
2.2531457E+002
 20
2.7136052E+002
 40
4.465885E-001
100
AcDbArc
 50
1.0990524E+002
 51
1.2098412E+002
  0
ARC
  5
2a5
100
AcDbEntity
  8
1
100
AcDbCircle
  6
CONTINUOUS
 62
40
 10
2.2531415E+002
 20
2.7135929E+002
 40
4.4760511E-001
100
AcDbArc
 50
9.8738808E+001
 51
1.0980096E+002
  0
ARC
  5
2a6
100
AcDbEntity
  8
1
100
AcDbCircle
  6
CONTINUOUS
 62
40
 10
2.2532138E+002
 20
2.7130751E+002
 40
4.9987845E-001
100
AcDbArc
 50
8.8377374E+001
 51
9.8656337E+001
  0
LINE
  5
2a7
100
AcDbEntity
  8
1
100
AcDbLine
  6
CONTINUOUS
 62
40
 10
2.1605955E+002
 20
2.195462E+002
 11
2.2459737E+002
 21
2.195462E+002
  0
ARC
  5
2a8
100
AcDbEntity
  8
1
100
AcDbCircle
  6
CONTINUOUS
 62
40
 10
2.2676791E+002
 20
2.1955231E+002
 40
2.1705429
100
AcDbArc
 50
1.8016108E+002
 51
1.9198539E+002
  0
ARC
  5
2a9
100
AcDbEntity
  8
1
100
AcDbCircle
  6
CONTINUOUS
 62
40
 10
2.2713803E+002
 20
2.1962976E+002
 40
2.5486837
100
AcDbArc
 50
1.9196066E+002
 51
2.0258411E+002
  0
ARC
  5
2aa
100
AcDbEntity
  8
1
100
AcDbCircle
  6
CONTINUOUS
 62
40
 10
2.274952E+002
 20
2.1977635E+002
 40
2.934765
100
AcDbArc
 50
2.0254871E+002
 51
2.12218E+002
  0
ARC
  5
2ab
100
AcDbEntity
  8
1
100
AcDbCircle
  6
CONTINUOUS
 62
40
 10
2.2777441E+002
 20
2.199498E+002
 40
3.2634514
100
AcDbArc
 50
2.1218084E+002
 51
2.2118876E+002
  0
ARC
  5
2ac
100
AcDbEntity
  8
1
100
AcDbCircle
  6
CONTINUOUS
 62
40
 10
2.2795309E+002
 20
2.2010438E+002
 40
3.4997129
100
AcDbArc
 50
2.2116686E+002
 51
2.3836181E+002
  0
ARC
  5
2ad
100
AcDbEntity
  8
1
100
AcDbCircle
  6
CONTINUOUS
 62
40
 10
2.279091E+002
 20
2.2002341E+002
 40
3.4077091
100
AcDbArc
 50
2.3827733E+002
 51
2.4702889E+002
  0
ARC
  5
2ae
100
AcDbEntity
  8
1
100
AcDbCircle
  6
CONTINUOUS
 62
40
 10
2.2780799E+002
 20
2.1977973E+002
 40
3.1438931
100
AcDbArc
 50
2.4699232E+002
 51
2.5622746E+002
  0
LINE
  5
2af
100
AcDbEntity
  8
1
100
AcDbLine
  6
CONTINUOUS
 62
40
 10
2.2705953E+002
 20
2.1672623E+002
 11
2.2705953E+002
 21
2.1082608E+002
  0
ARC
  5
2b0
100
AcDbEntity
  8
1
100
AcDbCircle
  6
CONTINUOUS
 62
40
 10
2.2505952E+002
 20
2.1082609E+002
 40
2.0000067
100
AcDbArc
 50
2.6999933E+002
 51
3.5999981E+002
  0
LINE
  5
2b1
100
AcDbEntity
  8
1
100
AcDbLine
  6
CONTINUOUS
 62
40
 10
2.250595E+002
 20
2.0882608E+002
 11
2.2456959E+002
 21
2.0882608E+002
  0
LINE
  5
2b2
100
AcDbEntity
  8
1
100
AcDbLine
  6
CONTINUOUS
 62
40
 10
2.2456959E+002
 20
2.0882608E+002
 11
2.2305958E+002
 21
2.0882608E+002
  0
LINE
  5
2b3
100
AcDbEntity
  8
1
100
AcDbLine
  6
CONTINUOUS
 62
40
 10
2.2305958E+002
 20
2.0882608E+002
 11
2.1430445E+002
 21
2.0882608E+002
  0
CIRCLE
  5
2b4
100
AcDbEntity
  8
1
100
AcDbCircle
  6
CONTINUOUS
 62
40
 10
1.0755961E+002
 20
2.1004666E+002
 40
2.5
  0
LINE
  5
2b5
100
AcDbEntity
  8
1
100
AcDbLine
  6
CENTERLINE
 62
1
 10
1.3405958E+002
 20
2.403262E+002
 11
1.3405958E+002
 21
2.0089288E+002
  0
LINE
  5
2b6
100
AcDbEntity
  8
1
100
AcDbLine
  6
CONTINUOUS
 62
40
 10
1.1105959E+002
 20
2.0582623E+002
 11
1.1105362E+002
 21
2.1282623E+002
  0
LINE
  5
2b7
100
AcDbEntity
  8
1
100
AcDbLine
  6
CONTINUOUS
 62
40
 10
1.1105362E+002
 20
2.1282623E+002
 11
9.3059585E+001
 21
2.1282623E+002
  0
LINE
  5
2b8
100
AcDbEntity
  8
1
100
AcDbLine
  6
CONTINUOUS
 62
40
 10
9.3059585E+001
 20
2.1282623E+002
 11
9.3059585E+001
 21
2.068262E+002
  0
ARC
  5
2b9
100
AcDbEntity
  8
1
100
AcDbCircle
  6
CONTINUOUS
 62
40
 10
9.4059567E+001
 20
2.0682619E+002
 40
9.9998217E-001
100
AcDbArc
 50
1.7999898E+002
 51
2.7000102E+002
  0
LINE
  5
2ba
100
AcDbEntity
  8
1
100
AcDbLine
  6
CONTINUOUS
 62
40
 10
9.4059585E+001
 20
2.058262E+002
 11
1.0105959E+002
 21
2.058262E+002
  0
ARC
  5
2bb
100
AcDbEntity
  8
1
100
AcDbCircle
  6
CONTINUOUS
 62
40
 10
1.8305955E+002
 20
2.2762616E+002
 40
1.9999983
100
AcDbArc
 50
1.7999995E+002
 51
2.7000005E+002
  0
LINE
  5
2bc
100
AcDbEntity
  8
1
100
AcDbLine
  6
CONTINUOUS
 62
40
 10
1.8305955E+002
 20
2.2562616E+002
 11
1.8605957E+002
 21
2.2562616E+002
  0
LINE
  5
2bd
100
AcDbEntity
  8
1
100
AcDbLine
  6
CONTINUOUS
 62
40
 10
1.8605957E+002
 20
2.2562616E+002
 11
2.1405955E+002
 21
2.2561054E+002
  0
ARC
  5
2be
100
AcDbEntity
  8
1
100
AcDbCircle
  6
CONTINUOUS
 62
40
 10
2.1405954E+002
 20
2.2361053E+002
 40
2.0000067
100
AcDbArc
 50
1.920727E-004
 51
8.9999808E+001
  0
LINE
  5
2bf
100
AcDbEntity
  8
1
100
AcDbLine
  6
CONTINUOUS
 62
40
 10
2.1605955E+002
 20
2.2361054E+002
 11
2.1605955E+002
 21
2.1382622E+002
  0
LINE
  5
2c0
100
AcDbEntity
  8
1
100
AcDbLine
  6
CONTINUOUS
 62
40
 10
1.035596E+002
 20
2.058262E+002
 11
1.0355959E+002
 21
2.1282623E+002
  0
LINE
  5
2c1
100
AcDbEntity
  8
1
100
AcDbLine
  6
CONTINUOUS
 62
40
 10
1.0355959E+002
 20
2.1282623E+002
 11
1.035596E+002
 21
2.058262E+002
  0
LINE
  5
2c2
100
AcDbEntity
  8
1
100
AcDbLine
  6
CONTINUOUS
 62
40
 10
1.6855956E+002
 20
2.403262E+002
 11
1.6855956E+002
 21
2.1032617E+002
  0
ARC
  5
2c3
100
AcDbEntity
  8
1
100
AcDbCircle
  6
CONTINUOUS
 62
40
 10
1.6905953E+002
 20
2.1032614E+002
 40
4.9997169E-001
100
AcDbArc
 50
1.7999676E+002
 51
2.7000324E+002
  0
LINE
  5
2c4
100
AcDbEntity
  8
1
100
AcDbLine
  6
CONTINUOUS
 62
40
 10
1.6905956E+002
 20
2.0982617E+002
 11
1.7055955E+002
 21
2.0982617E+002
  0
CIRCLE
  5
2c5
100
AcDbEntity
  8
1
100
AcDbCircle
  6
CONTINUOUS
 62
40
 10
1.0755962E+002
 20
2.7070417E+002
 40
2.5
  0
LINE
  5
2c6
100
AcDbEntity
  8
1
100
AcDbLine
  6
CENTERLINE
 62
1
 10
1.3405958E+002
 20
2.403262E+002
 11
1.3405958E+002
 21
2.7975951E+002
  0
LINE
  5
2c7
100
AcDbEntity
  8
1
100
AcDbLine
  6
CONTINUOUS
 62
40
 10
1.0355959E+002
 20
2.6782623E+002
 11
1.0355959E+002
 21
2.7482625E+002
  0
LINE
  5
2c8
100
AcDbEntity
  8
1
100
AcDbLine
  6
CONTINUOUS
 62
40
 10
1.1105959E+002
 20
2.7482622E+002
 11
1.1105957E+002
 21
2.6782623E+002
  0
LINE
  5
2c9
100
AcDbEntity
  8
1
100
AcDbLine
  6
CONTINUOUS
 62
40
 10
1.1105957E+002
 20
2.6782623E+002
 11
9.3059585E+001
 21
2.6782623E+002
  0
LINE
  5
2ca
100
AcDbEntity
  8
1
100
AcDbLine
  6
CONTINUOUS
 62
40
 10
9.3059585E+001
 20
2.6782623E+002
 11
9.3059585E+001
 21
2.7382625E+002
  0
ARC
  5
2cb
100
AcDbEntity
  8
1
100
AcDbCircle
  6
CONTINUOUS
 62
40
 10
9.4059577E+001
 20
2.7382626E+002
 40
9.9999259E-001
100
AcDbArc
 50
8.9999575E+001
 51
1.8000042E+002
  0
LINE
  5
2cc
100
AcDbEntity
  8
1
100
AcDbLine
  6
CONTINUOUS
 62
40
 10
9.4059585E+001
 20
2.7482625E+002
 11
1.0105959E+002
 21
2.7482625E+002
  0
LINE
  5
2cd
100
AcDbEntity
  8
1
100
AcDbLine
  6
CONTINUOUS
 62
40
 10
2.2155956E+002
 20
2.6682622E+002
 11
2.2155959E+002
 21
2.5702627E+002
  0
ARC
  5
2ce
100
AcDbEntity
  8
1
100
AcDbCircle
  6
CONTINUOUS
 62
40
 10
2.195596E+002
 20
2.5702626E+002
 40
1.9999875
100
AcDbArc
 50
2.6999964E+002
 51
3.6000036E+002
  0
LINE
  5
2cf
100
AcDbEntity
  8
1
100
AcDbLine
  6
CONTINUOUS
 62
40
 10
2.1955959E+002
 20
2.5502627E+002
 11
1.8605957E+002
 21
2.5502627E+002
  0
LINE
  5
2d0
100
AcDbEntity
  8
1
100
AcDbLine
  6
CONTINUOUS
 62
40
 10
1.8605957E+002
 20
2.5502627E+002
 11
1.8305952E+002
 21
2.5502624E+002
  0
ARC
  5
2d1
100
AcDbEntity
  8
1
100
AcDbCircle
  6
CONTINUOUS
 62
40
 10
1.8305952E+002
 20
2.5302626E+002
 40
1.9999795
100
AcDbArc
 50
8.9999844E+001
 51
1.8000059E+002
  0
CIRCLE
  5
2d2
100
AcDbEntity
  8
1
100
AcDbCircle
  6
CONTINUOUS
 62
40
 10
3.0505957E+002
 20
2.6832625E+002
 40
2.5
  0
LINE
  5
2d3
100
AcDbEntity
  8
1
100
AcDbLine
  6
CONTINUOUS
 62
40
 10
3.015596E+002
 20
2.733262E+002
 11
3.0455957E+002
 21
2.7332625E+002
  0
LINE
  5
2d4
100
AcDbEntity
  8
1
100
AcDbLine
  6
CONTINUOUS
 62
40
 10
3.0455957E+002
 20
2.7332625E+002
 11
3.1205955E+002
 21
2.7332617E+002
  0
LINE
  5
2d5
100
AcDbEntity
  8
1
100
AcDbLine
  6
CONTINUOUS
 62
40
 10
3.1205955E+002
 20
2.7332617E+002
 11
3.0484423E+002
 21
2.7332625E+002
  0
LINE
  5
2d6
100
AcDbEntity
  8
1
100
AcDbLine
  6
CENTERLINE
 62
1
 10
3.3705957E+002
 20
2.6732625E+002
 11
3.3805957E+002
 21
2.6732625E+002
  0
LINE
  5
2d7
100
AcDbEntity
  8
1
100
AcDbLine
  6
CENTERLINE
 62
1
 10
3.3805957E+002
 20
2.6732625E+002
 11
3.580596E+002
 21
2.6732625E+002
  0
LINE
  5
2d8
100
AcDbEntity
  8
1
100
AcDbLine
  6
CENTERLINE
 62
1
 10
3.1905957E+002
 20
2.8074587E+002
 11
3.1905957E+002
 21
2.6841007E+002
  0
LINE
  5
2d9
100
AcDbEntity
  8
1
100
AcDbLine
  6
CONTINUOUS
 62
40
 10
1.0355959E+002
 20
2.6782623E+002
 11
1.035596E+002
 21
2.7482625E+002
  0
LINE
  5
2da
100
AcDbEntity
  8
1
100
AcDbLine
  6
CONTINUOUS
 62
40
 10
1.6855957E+002
 20
2.4032629E+002
 11
1.6855957E+002
 21
2.7032628E+002
  0
ARC
  5
2db
100
AcDbEntity
  8
1
100
AcDbCircle
  6
CONTINUOUS
 62
40
 10
1.6905954E+002
 20
2.7032631E+002
 40
4.9997075E-001
100
AcDbArc
 50
8.9996648E+001
 51
1.8000335E+002
  0
LINE
  5
2dc
100
AcDbEntity
  8
1
100
AcDbLine
  6
CONTINUOUS
 62
40
 10
1.6905957E+002
 20
2.7082628E+002
 11
1.7055955E+002
 21
2.7082628E+002
  0
LINE
  5
2dd
100
AcDbEntity
  8
1
100
AcDbLine
  6
CONTINUOUS
 62
40
 10
3.3555963E+002
 20
2.582148E+002
 11
3.3555963E+002
 21
2.4032626E+002
  0
LINE
  5
2de
100
AcDbEntity
  8
1
100
AcDbLine
  6
CONTINUOUS
 62
40
 10
3.2720317E+002
 20
2.5821474E+002
 11
3.3555963E+002
 21
2.582148E+002
  0
LINE
  5
2df
100
AcDbEntity
  8
1
100
AcDbLine
  6
CONTINUOUS
 62
40
 10
3.3555963E+002
 20
2.582148E+002
 11
3.3555961E+002
 21
2.5953516E+002
  0
LINE
  5
2e0
100
AcDbEntity
  8
1
100
AcDbLine
  6
CONTINUOUS
 62
40
 10
3.3555961E+002
 20
2.5953516E+002
 11
3.3805952E+002
 21
2.5953517E+002
  0
LINE
  5
2e1
100
AcDbEntity
  8
1
100
AcDbLine
  6
CONTINUOUS
 62
40
 10
3.3805952E+002
 20
2.5953517E+002
 11
3.3805952E+002
 21
2.713262E+002
  0
ARC
  5
2e2
100
AcDbEntity
  8
1
100
AcDbCircle
  6
CONTINUOUS
 62
40
 10
3.3605951E+002
 20
2.7132618E+002
 40
2.00001
100
AcDbArc
 50
7.173258E-004
 51
8.9998853E+001
  0
LINE
  5
2e3
100
AcDbEntity
  8
1
100
AcDbLine
  6
CONTINUOUS
 62
40
 10
3.3605955E+002
 20
2.7332619E+002
 11
3.3405953E+002
 21
2.7332622E+002
  0
ARC
  5
2e4
100
AcDbEntity
  8
1
100
AcDbCircle
  6
CONTINUOUS
 62
40
 10
3.3405952E+002
 20
2.7232622E+002
 40
1.0000018
100
AcDbArc
 50
8.9999245E+001
 51
1.799999E+002
  0
LINE
  5
2e5
100
AcDbEntity
  8
1
100
AcDbLine
  6
CONTINUOUS
 62
40
 10
3.3305952E+002
 20
2.7232622E+002
 11
3.3305952E+002
 21
2.7182625E+002
  0
ARC
  5
2e6
100
AcDbEntity
  8
1
100
AcDbCircle
  6
CONTINUOUS
 62
40
 10
3.3205951E+002
 20
2.7182626E+002
 40
1.0000128
100
AcDbArc
 50
2.6999896E+002
 51
3.5999927E+002
  0
LINE
  5
2e7
100
AcDbEntity
  8
1
100
AcDbLine
  6
CONTINUOUS
 62
40
 10
3.3205949E+002
 20
2.7082625E+002
 11
3.1005955E+002
 21
2.7082625E+002
  0
LINE
  5
2e8
100
AcDbEntity
  8
1
100
AcDbLine
  6
CONTINUOUS
 62
40
 10
3.1005955E+002
 20
2.7082625E+002
 11
3.100596E+002
 21
2.6732625E+002
  0
LINE
  5
2e9
100
AcDbEntity
  8
1
100
AcDbLine
  6
CONTINUOUS
 62
40
 10
3.100596E+002
 20
2.6732625E+002
 11
3.100596E+002
 21
2.6632625E+002
  0
ARC
  5
2ea
100
AcDbEntity
  8
1
100
AcDbCircle
  6
CONTINUOUS
 62
40
 10
3.0805957E+002
 20
2.6632628E+002
 40
2.0000283
100
AcDbArc
 50
2.6999992E+002
 51
3.5999919E+002
  0
LINE
  5
2eb
100
AcDbEntity
  8
1
100
AcDbLine
  6
CONTINUOUS
 62
40
 10
3.0805957E+002
 20
2.6432625E+002
 11
3.015596E+002
 21
2.6432625E+002
  0
LINE
  5
2ec
100
AcDbEntity
  8
1
100
AcDbLine
  6
CONTINUOUS
 62
40
 10
3.015596E+002
 20
2.6432625E+002
 11
2.3355961E+002
 21
2.6432625E+002
  0
LINE
  5
2ed
100
AcDbEntity
  8
1
100
AcDbLine
  6
CONTINUOUS
 62
40
 10
2.3355961E+002
 20
2.6432625E+002
 11
2.2705953E+002
 21
2.6432625E+002
  0
LINE
  5
2ee
100
AcDbEntity
  8
1
100
AcDbLine
  6
CONTINUOUS
 62
40
 10
3.3805952E+002
 20
2.5952623E+002
 11
3.3805952E+002
 21
2.2112623E+002
  0
ARC
  5
2ef
100
AcDbEntity
  8
1
100
AcDbCircle
  6
CONTINUOUS
 62
40
 10
1.160596E+002
 20
2.1082619E+002
 40
4.0000155
100
AcDbArc
 50
1.4999937E+002
 51
3.9000063E+002
  0
ARC
  5
2f0
100
AcDbEntity
  8
1
100
AcDbCircle
  6
CONTINUOUS
 62
40
 10
1.1605958E+002
 20
2.6982623E+002
 40
3.9999999
100
AcDbArc
 50
3.3E+002
 51
5.7E+002
  0
CIRCLE
  5
2f1
100
AcDbEntity
  8
1
100
AcDbCircle
  6
CENTERLINE
 62
1
 10
1.3405958E+002
 20
2.4032625E+002
 40
1.2649994E+001
  0
CIRCLE
  5
2f2
100
AcDbEntity
  8
1
100
AcDbCircle
  6
CONTINUOUS
 62
40
 10
1.6305957E+002
 20
2.153262E+002
 40
4.0
  0
CIRCLE
  5
2f3
100
AcDbEntity
  8
1
100
AcDbCircle
  6
CONTINUOUS
 62
40
 10
9.30596E+001
 20
2.4032625E+002
 40
1.8499909
  0
LINE
  5
2f4
100
AcDbEntity
  8
1
100
AcDbLine
  6
CENTERLINE
 62
1
 10
1.3405958E+002
 20
2.4032623E+002
 11
1.3405958E+002
 21
2.0457437E+002
  0
LINE
  5
2f5
100
AcDbEntity
  8
1
100
AcDbLine
  6
CONTINUOUS
 62
40
 10
1.6855955E+002
 20
2.4032623E+002
 11
1.6855956E+002
 21
2.1182621E+002
  0
ARC
  5
2f6
100
AcDbEntity
  8
1
100
AcDbCircle
  6
CONTINUOUS
 62
40
 10
1.6655955E+002
 20
2.1182622E+002
 40
2.0000092
100
AcDbArc
 50
2.7000026E+002
 51
3.5999974E+002
  0
LINE
  5
2f7
100
AcDbEntity
  8
1
100
AcDbLine
  6
CONTINUOUS
 62
40
 10
1.6655956E+002
 20
2.0982621E+002
 11
1.6505955E+002
 21
2.0982621E+002
  0
ARC
  5
2f8
100
AcDbEntity
  8
1
100
AcDbCircle
  6
CONTINUOUS
 62
40
 10
1.6505954E+002
 20
2.0782623E+002
 40
1.9999872
100
AcDbArc
 50
8.9999633E+001
 51
1.8000037E+002
  0
LINE
  5
2f9
100
AcDbEntity
  8
1
100
AcDbLine
  6
CONTINUOUS
 62
40
 10
1.6305955E+002
 20
2.0782621E+002
 11
1.6305955E+002
 21
2.0782618E+002
  0
ARC
  5
2fa
100
AcDbEntity
  8
1
100
AcDbCircle
  6
CONTINUOUS
 62
40
 10
1.6105953E+002
 20
2.0782621E+002
 40
2.0000251
100
AcDbArc
 50
2.7000072E+002
 51
3.5999928E+002
  0
LINE
  5
2fb
100
AcDbEntity
  8
1
100
AcDbLine
  6
CONTINUOUS
 62
40
 10
1.6105955E+002
 20
2.0582618E+002
 11
1.1305959E+002
 21
2.0582618E+002
  0
ARC
  5
2fc
100
AcDbEntity
  8
1
100
AcDbCircle
  6
CONTINUOUS
 62
40
 10
1.1305958E+002
 20
2.0782618E+002
 40
1.9999924
100
AcDbArc
 50
1.7999978E+002
 51
2.7000022E+002
  0
LINE
  5
2fd
100
AcDbEntity
  8
1
100
AcDbLine
  6
CONTINUOUS
 62
40
 10
1.1105959E+002
 20
2.0782618E+002
 11
1.1105959E+002
 21
2.1282623E+002
  0
LINE
  5
2fe
100
AcDbEntity
  8
1
100
AcDbLine
  6
CENTERLINE
 62
1
 10
1.3405958E+002
 20
2.4032625E+002
 11
1.3405958E+002
 21
2.0457436E+002
  0
CIRCLE
  5
2ff
100
AcDbEntity
  8
1
100
AcDbCircle
  6
CONTINUOUS
 62
40
 10
1.6305957E+002
 20
2.6532626E+002
 40
4.0
  0
CIRCLE
  5
300
100
AcDbEntity
  8
1
100
AcDbCircle
  6
CONTINUOUS
 62
40
 10
9.30596E+001
 20
2.4032623E+002
 40
1.8499909
  0
LINE
  5
301
100
AcDbEntity
  8
1
100
AcDbLine
  6
CENTERLINE
 62
1
 10
1.3405958E+002
 20
2.4032625E+002
 11
1.3405958E+002
 21
2.760781E+002
  0
LINE
  5
302
100
AcDbEntity
  8
1
100
AcDbLine
  6
CONTINUOUS
 62
40
 10
1.6855957E+002
 20
2.4032623E+002
 11
1.6855957E+002
 21
2.6882623E+002
  0
ARC
  5
303
100
AcDbEntity
  8
1
100
AcDbCircle
  6
CONTINUOUS
 62
40
 10
1.6655955E+002
 20
2.6882621E+002
 40
2.0000212
100
AcDbArc
 50
6.06047E-004
 51
8.9999394E+001
  0
LINE
  5
304
100
AcDbEntity
  8
1
100
AcDbLine
  6
CONTINUOUS
 62
40
 10
1.6655957E+002
 20
2.7082623E+002
 11
1.6505956E+002
 21
2.7082623E+002
  0
ARC
  5
305
100
AcDbEntity
  8
1
100
AcDbCircle
  6
CONTINUOUS
 62
40
 10
1.6505954E+002
 20
2.7282621E+002
 40
1.9999786
100
AcDbArc
 50
1.7999939E+002
 51
2.7000061E+002
  0
LINE
  5
306
100
AcDbEntity
  8
1
100
AcDbLine
  6
CONTINUOUS
 62
40
 10
1.6305956E+002
 20
2.7282623E+002
 11
1.6305956E+002
 21
2.7282626E+002
  0
ARC
  5
307
100
AcDbEntity
  8
1
100
AcDbCircle
  6
CONTINUOUS
 62
40
 10
1.6105954E+002
 20
2.7282624E+002
 40
2.0000249
100
AcDbArc
 50
7.119934E-004
 51
8.9999517E+001
  0
LINE
  5
308
100
AcDbEntity
  8
1
100
AcDbLine
  6
CONTINUOUS
 62
40
 10
1.6105955E+002
 20
2.7482626E+002
 11
1.1305959E+002
 21
2.7482626E+002
  0
ARC
  5
309
100
AcDbEntity
  8
1
100
AcDbCircle
  6
CONTINUOUS
 62
40
 10
1.1305959E+002
 20
2.7282625E+002
 40
2.0000094
100
AcDbArc
 50
9.0000269E+001
 51
1.7999973E+002
  0
LINE
  5
30a
100
AcDbEntity
  8
1
100
AcDbLine
  6
CONTINUOUS
 62
40
 10
1.1105959E+002
 20
2.7282626E+002
 11
1.1105957E+002
 21
2.6782623E+002
  0
LINE
  5
30b
100
AcDbEntity
  8
1
100
AcDbLine
  6
CENTERLINE
 62
1
 10
1.3405958E+002
 20
2.4032625E+002
 11
1.3405958E+002
 21
2.7607813E+002
  0
LINE
  5
30c
100
AcDbEntity
  8
1
100
AcDbLine
  6
CONTINUOUS
 62
40
 10
1.1445961E+002
 20
2.0989748E+002
 11
1.1605959E+002
 21
2.0897615E+002
  0
LINE
  5
30d
100
AcDbEntity
  8
1
100
AcDbLine
  6
CONTINUOUS
 62
40
 10
1.1605959E+002
 20
2.0897615E+002
 11
1.1765962E+002
 21
2.0989748E+002
  0
LINE
  5
30e
100
AcDbEntity
  8
1
100
AcDbLine
  6
CONTINUOUS
 62
40
 10
1.1765962E+002
 20
2.0989748E+002
 11
1.1765962E+002
 21
2.117549E+002
  0
LINE
  5
30f
100
AcDbEntity
  8
1
100
AcDbLine
  6
CONTINUOUS
 62
40
 10
1.1765962E+002
 20
2.117549E+002
 11
1.1605959E+002
 21
2.1267616E+002
  0
LINE
  5
310
100
AcDbEntity
  8
1
100
AcDbLine
  6
CONTINUOUS
 62
40
 10
1.1605959E+002
 20
2.1267616E+002
 11
1.1445961E+002
 21
2.117549E+002
  0
LINE
  5
311
100
AcDbEntity
  8
1
100
AcDbLine
  6
CONTINUOUS
 62
40
 10
1.1445961E+002
 20
2.117549E+002
 11
1.1445961E+002
 21
2.0989748E+002
  0
LINE
  5
312
100
AcDbEntity
  8
1
100
AcDbLine
  6
CONTINUOUS
 62
40
 10
1.1445961E+002
 20
2.7075498E+002
 11
1.1605959E+002
 21
2.716763E+002
  0
LINE
  5
313
100
AcDbEntity
  8
1
100
AcDbLine
  6
CONTINUOUS
 62
40
 10
1.1605959E+002
 20
2.716763E+002
 11
1.1765962E+002
 21
2.7075498E+002
  0
LINE
  5
314
100
AcDbEntity
  8
1
100
AcDbLine
  6
CONTINUOUS
 62
40
 10
1.1765962E+002
 20
2.7075498E+002
 11
1.1765962E+002
 21
2.6889755E+002
  0
LINE
  5
315
100
AcDbEntity
  8
1
100
AcDbLine
  6
CONTINUOUS
 62
40
 10
1.1765962E+002
 20
2.6889755E+002
 11
1.1605959E+002
 21
2.6797629E+002
  0
LINE
  5
316
100
AcDbEntity
  8
1
100
AcDbLine
  6
CONTINUOUS
 62
40
 10
1.1605959E+002
 20
2.6797629E+002
 11
1.1445961E+002
 21
2.6889755E+002
  0
LINE
  5
317
100
AcDbEntity
  8
1
100
AcDbLine
  6
CONTINUOUS
 62
40
 10
1.1445961E+002
 20
2.6889755E+002
 11
1.1445961E+002
 21
2.7075498E+002
  0
LINE
  5
318
100
AcDbEntity
  8
1
100
AcDbLine
  6
CONTINUOUS
 62
40
 10
1.6145959E+002
 20
2.6439749E+002
 11
1.6305956E+002
 21
2.6347617E+002
  0
LINE
  5
319
100
AcDbEntity
  8
1
100
AcDbLine
  6
CONTINUOUS
 62
40
 10
1.6305956E+002
 20
2.6347617E+002
 11
1.646596E+002
 21
2.6439749E+002
  0
LINE
  5
31a
100
AcDbEntity
  8
1
100
AcDbLine
  6
CONTINUOUS
 62
40
 10
1.646596E+002
 20
2.6439749E+002
 11
1.646596E+002
 21
2.6625491E+002
  0
LINE
  5
31b
100
AcDbEntity
  8
1
100
AcDbLine
  6
CONTINUOUS
 62
40
 10
1.646596E+002
 20
2.6625491E+002
 11
1.6305956E+002
 21
2.6717618E+002
  0
LINE
  5
31c
100
AcDbEntity
  8
1
100
AcDbLine
  6
CONTINUOUS
 62
40
 10
1.6305956E+002
 20
2.6717618E+002
 11
1.6145959E+002
 21
2.6625491E+002
  0
LINE
  5
31d
100
AcDbEntity
  8
1
100
AcDbLine
  6
CONTINUOUS
 62
40
 10
1.6145959E+002
 20
2.6625491E+002
 11
1.6145959E+002
 21
2.6439749E+002
  0
CIRCLE
  5
31e
100
AcDbEntity
  8
1
100
AcDbCircle
  6
CONTINUOUS
 62
40
 10
1.6305956E+002
 20
2.653262E+002
 40
4.0
  0
LINE
  5
31f
100
AcDbEntity
  8
1
100
AcDbLine
  6
CONTINUOUS
 62
40
 10
1.6145959E+002
 20
2.1625498E+002
 11
1.6305956E+002
 21
2.171763E+002
  0
LINE
  5
320
100
AcDbEntity
  8
1
100
AcDbLine
  6
CONTINUOUS
 62
40
 10
1.6305956E+002
 20
2.171763E+002
 11
1.646596E+002
 21
2.1625498E+002
  0
LINE
  5
321
100
AcDbEntity
  8
1
100
AcDbLine
  6
CONTINUOUS
 62
40
 10
1.646596E+002
 20
2.1625498E+002
 11
1.646596E+002
 21
2.1439755E+002
  0
LINE
  5
322
100
AcDbEntity
  8
1
100
AcDbLine
  6
CONTINUOUS
 62
40
 10
1.646596E+002
 20
2.1439755E+002
 11
1.6305956E+002
 21
2.1347629E+002
  0
LINE
  5
323
100
AcDbEntity
  8
1
100
AcDbLine
  6
CONTINUOUS
 62
40
 10
1.6305956E+002
 20
2.1347629E+002
 11
1.6145959E+002
 21
2.1439755E+002
  0
LINE
  5
324
100
AcDbEntity
  8
1
100
AcDbLine
  6
CONTINUOUS
 62
40
 10
1.6145959E+002
 20
2.1439755E+002
 11
1.6145959E+002
 21
2.1625498E+002
  0
CIRCLE
  5
325
100
AcDbEntity
  8
1
100
AcDbCircle
  6
CONTINUOUS
 62
40
 10
1.6305956E+002
 20
2.1532626E+002
 40
4.0
  0
CIRCLE
  5
326
100
AcDbEntity
  8
1
100
AcDbCircle
  6
CENTERLINE
 62
1
 10
1.3405958E+002
 20
2.4032623E+002
 40
2.150001
  0
LINE
  5
327
100
AcDbEntity
  8
1
100
AcDbLine
  6
CENTERLINE
 62
1
 10
1.243051E+002
 20
2.3442624E+002
 11
1.4381406E+002
 21
2.3442624E+002
  0
ARC
  5
328
100
AcDbEntity
  8
1
100
AcDbCircle
  6
CENTERLINE
 62
1
 10
1.3405958E+002
 20
2.4032623E+002
 40
1.1399988E+001
100
AcDbArc
 50
3.2883238E+002
 51
3.9116762E+002
  0
LINE
  5
329
100
AcDbEntity
  8
1
100
AcDbLine
  6
CENTERLINE
 62
1
 10
1.4381406E+002
 20
2.4622622E+002
 11
1.243051E+002
 21
2.4622622E+002
  0
ARC
  5
32a
100
AcDbEntity
  8
1
100
AcDbCircle
  6
CENTERLINE
 62
1
 10
1.3405958E+002
 20
2.4032623E+002
 40
1.1399989E+001
100
AcDbArc
 50
1.4883238E+002
 51
2.1116762E+002
  0
LINE
  5
32b
100
AcDbEntity
  8
1
100
AcDbLine
  6
CENTERLINE
 62
1
 10
1.2647334E+002
 20
2.4032623E+002
 11
1.283586E+002
 21
2.4032623E+002
  0
LINE
  5
32c
100
AcDbEntity
  8
1
100
AcDbLine
  6
CENTERLINE
 62
1
 10
1.3405958E+002
 20
2.403262E+002
 11
1.3405958E+002
 21
2.0089288E+002
  0
LINE
  5
32d
100
AcDbEntity
  8
1
100
AcDbLine
  6
CENTERLINE
 62
1
 10
1.3405958E+002
 20
2.403262E+002
 11
1.3405958E+002
 21
2.7975949E+002
  0
LINE
  5
32e
100
AcDbEntity
  8
1
100
AcDbLine
  6
CONTINUOUS
 62
40
 10
1.4645731E+002
 20
3.6668235E+002
 11
1.2170962E+002
 21
3.6668232E+002
  0
LINE
  5
32f
100
AcDbEntity
  8
1
100
AcDbLine
  6
CONTINUOUS
 62
40
 10
1.2170962E+002
 20
3.6668232E+002
 11
1.6188716E+002
 21
3.6668237E+002
  0
LINE
  5
330
100
AcDbEntity
  8
1
100
AcDbLine
  6
CONTINUOUS
 62
40
 10
1.6188716E+002
 20
3.6668237E+002
 11
1.6305952E+002
 21
3.6668239E+002
  0
LINE
  5
331
100
AcDbEntity
  8
1
100
AcDbLine
  6
CONTINUOUS
 62
40
 10
1.6305952E+002
 20
3.6668239E+002
 11
1.6355952E+002
 21
3.6618234E+002
  0
LINE
  5
332
100
AcDbEntity
  8
1
100
AcDbLine
  6
CONTINUOUS
 62
40
 10
1.6355952E+002
 20
3.6618234E+002
 11
1.6355942E+002
 21
3.6518235E+002
  0
LINE
  5
333
100
AcDbEntity
  8
1
100
AcDbLine
  6
CONTINUOUS
 62
40
 10
1.6355942E+002
 20
3.6518235E+002
 11
1.5449612E+002
 21
3.6518235E+002
  0
LINE
  5
334
100
AcDbEntity
  8
1
100
AcDbLine
  6
CONTINUOUS
 62
40
 10
1.5449612E+002
 20
3.6518235E+002
 11
1.4955962E+002
 21
3.6518232E+002
  0
LINE
  5
335
100
AcDbEntity
  8
1
100
AcDbLine
  6
CONTINUOUS
 62
40
 10
1.4955962E+002
 20
3.6518232E+002
 11
1.4955962E+002
 21
3.6318235E+002
  0
LINE
  5
336
100
AcDbEntity
  8
1
100
AcDbLine
  6
CONTINUOUS
 62
40
 10
1.4955962E+002
 20
3.6318235E+002
 11
7.0059523E+001
 21
3.6318235E+002
  0
LINE
  5
337
100
AcDbEntity
  8
1
100
AcDbLine
  6
CONTINUOUS
 62
40
 10
7.0059523E+001
 20
3.6318235E+002
 11
7.0059623E+001
 21
3.6668235E+002
  0
LINE
  5
338
100
AcDbEntity
  8
1
100
AcDbLine
  6
CONTINUOUS
 62
40
 10
7.0059623E+001
 20
3.6668235E+002
 11
1.2170962E+002
 21
3.6668232E+002
  0
LINE
  5
339
100
AcDbEntity
  8
1
100
AcDbLine
  6
CONTINUOUS
 62
1
 10
3.3805947E+002
 20
2.1116692E+002
 11
3.5303202E+002
 21
2.1116691E+002
  0
LINE
  5
33a
100
AcDbEntity
  8
1
100
AcDbLine
  6
CONTINUOUS
 62
1
 10
3.3805947E+002
 20
2.1556692E+002
 11
3.5303202E+002
 21
2.1556691E+002
  0
LINE
  5
33b
100
AcDbEntity
  8
1
100
AcDbLine
  6
CONTINUOUS
 62
40
 10
3.5583202E+002
 20
2.1048016E+002
 11
3.5303202E+002
 21
2.1048016E+002
  0
LINE
  5
33c
100
AcDbEntity
  8
1
100
AcDbLine
  6
CONTINUOUS
 62
40
 10
3.5303202E+002
 20
2.1624184E+002
 11
3.5581611E+002
 21
2.1624184E+002
  0
LINE
  5
33d
100
AcDbEntity
  8
1
100
AcDbLine
  6
CONTINUOUS
 62
40
 10
3.5303202E+002
 20
2.1036691E+002
 11
3.5303202E+002
 21
2.1636691E+002
  0
LINE
  5
33e
100
AcDbEntity
  8
1
100
AcDbLine
  6
CONTINUOUS
 62
40
 10
3.380595E+002
 20
2.1036692E+002
 11
3.5303202E+002
 21
2.1036691E+002
  0
LINE
  5
33f
100
AcDbEntity
  8
1
100
AcDbLine
  6
CONTINUOUS
 62
40
 10
3.5303202E+002
 20
2.1036691E+002
 11
3.5303202E+002
 21
2.0904811E+002
  0
LINE
  5
340
100
AcDbEntity
  8
1
100
AcDbLine
  6
CONTINUOUS
 62
40
 10
3.5303202E+002
 20
2.0904811E+002
 11
3.5303202E+002
 21
2.0809341E+002
  0
ARC
  5
341
100
AcDbEntity
  8
1
100
AcDbCircle
  6
CONTINUOUS
 62
40
 10
3.5353202E+002
 20
2.0809341E+002
 40
4.9999955E-001
100
AcDbArc
 50
1.7999995E+002
 51
2.7000005E+002
  0
LINE
  5
342
100
AcDbEntity
  8
1
100
AcDbLine
  6
CONTINUOUS
 62
40
 10
3.5353202E+002
 20
2.0759341E+002
 11
3.5584683E+002
 21
2.0759341E+002
  0
ARC
  5
343
100
AcDbEntity
  8
1
100
AcDbCircle
  6
CONTINUOUS
 62
40
 10
3.5468809E+002
 20
2.0902959E+002
 40
1.8453459
100
AcDbArc
 50
3.0889728E+002
 51
3.6030343E+002
  0
ARC
  5
344
100
AcDbEntity
  8
1
100
AcDbCircle
  6
CONTINUOUS
 62
40
 10
3.5468274E+002
 20
2.0902957E+002
 40
1.850694
100
AcDbArc
 50
3.0330956E-001
 51
5.1610764E+001
  0
ARC
  5
345
100
AcDbEntity
  8
1
100
AcDbCircle
  6
CONTINUOUS
 62
40
 10
3.5060316E+002
 20
2.1333295E+002
 40
5.9564624
100
AcDbArc
 50
3.3138376E+002
 51
3.6026235E+002
  0
ARC
  5
346
100
AcDbEntity
  8
1
100
AcDbCircle
  6
CONTINUOUS
 62
40
 10
3.5049578E+002
 20
2.1333251E+002
 40
6.0638418
100
AcDbArc
 50
2.6184435E-001
 51
2.8798613E+001
  0
LINE
  5
347
100
AcDbEntity
  8
1
100
AcDbLine
  6
CONTINUOUS
 62
40
 10
3.5580964E+002
 20
2.1625366E+002
 11
3.5584683E+002
 21
2.1625366E+002
  0
ARC
  5
348
100
AcDbEntity
  8
1
100
AcDbCircle
  6
CONTINUOUS
 62
40
 10
3.5468541E+002
 20
2.1769366E+002
 40
1.8500001
100
AcDbArc
 50
3.0888768E+002
 51
4.114466E+002
  0
LINE
  5
349
100
AcDbEntity
  8
1
100
AcDbLine
  6
CONTINUOUS
 62
40
 10
3.5583841E+002
 20
2.1914041E+002
 11
3.5353202E+002
 21
2.1914041E+002
  0
ARC
  5
34a
100
AcDbEntity
  8
1
100
AcDbCircle
  6
CONTINUOUS
 62
40
 10
3.5353202E+002
 20
2.1864041E+002
 40
4.9999986E-001
100
AcDbArc
 50
8.9999984E+001
 51
1.8000002E+002
  0
LINE
  5
34b
100
AcDbEntity
  8
1
100
AcDbLine
  6
CONTINUOUS
 62
40
 10
3.5303202E+002
 20
2.1864041E+002
 11
3.5303202E+002
 21
2.1798571E+002
  0
LINE
  5
34c
100
AcDbEntity
  8
1
100
AcDbLine
  6
CONTINUOUS
 62
40
 10
3.5303202E+002
 20
2.1798571E+002
 11
3.5303202E+002
 21
2.1636691E+002
  0
LINE
  5
34d
100
AcDbEntity
  8
1
100
AcDbLine
  6
CONTINUOUS
 62
40
 10
3.5303202E+002
 20
2.1636691E+002
 11
3.380595E+002
 21
2.1636692E+002
  0
LINE
  5
34e
100
AcDbEntity
  8
1
100
AcDbLine
  6
CONTINUOUS
 62
1
 10
3.3805947E+002
 20
2.6516696E+002
 11
3.5303202E+002
 21
2.6516696E+002
  0
LINE
  5
34f
100
AcDbEntity
  8
1
100
AcDbLine
  6
CONTINUOUS
 62
1
 10
3.3805947E+002
 20
2.6956696E+002
 11
3.5303202E+002
 21
2.6956696E+002
  0
LINE
  5
350
100
AcDbEntity
  8
1
100
AcDbLine
  6
CONTINUOUS
 62
40
 10
3.5583202E+002
 20
2.6448021E+002
 11
3.5303202E+002
 21
2.6448021E+002
  0
LINE
  5
351
100
AcDbEntity
  8
1
100
AcDbLine
  6
CONTINUOUS
 62
40
 10
3.5303202E+002
 20
2.7024189E+002
 11
3.5581611E+002
 21
2.7024189E+002
  0
LINE
  5
352
100
AcDbEntity
  8
1
100
AcDbLine
  6
CONTINUOUS
 62
40
 10
3.5303202E+002
 20
2.6436696E+002
 11
3.5303202E+002
 21
2.7036696E+002
  0
LINE
  5
353
100
AcDbEntity
  8
1
100
AcDbLine
  6
CONTINUOUS
 62
40
 10
3.380595E+002
 20
2.6436696E+002
 11
3.5303202E+002
 21
2.6436696E+002
  0
LINE
  5
354
100
AcDbEntity
  8
1
100
AcDbLine
  6
CONTINUOUS
 62
40
 10
3.5303202E+002
 20
2.6436696E+002
 11
3.5303202E+002
 21
2.6304815E+002
  0
LINE
  5
355
100
AcDbEntity
  8
1
100
AcDbLine
  6
CONTINUOUS
 62
40
 10
3.5303202E+002
 20
2.6304815E+002
 11
3.5303202E+002
 21
2.6209345E+002
  0
ARC
  5
356
100
AcDbEntity
  8
1
100
AcDbCircle
  6
CONTINUOUS
 62
40
 10
3.5353203E+002
 20
2.6209345E+002
 40
5.0000005E-001
100
AcDbArc
 50
1.8E+002
 51
2.7E+002
  0
LINE
  5
357
100
AcDbEntity
  8
1
100
AcDbLine
  6
CONTINUOUS
 62
40
 10
3.5353202E+002
 20
2.6159345E+002
 11
3.5584683E+002
 21
2.6159345E+002
  0
ARC
  5
358
100
AcDbEntity
  8
1
100
AcDbCircle
  6
CONTINUOUS
 62
40
 10
3.5468809E+002
 20
2.6302964E+002
 40
1.8453442
100
AcDbArc
 50
3.0889726E+002
 51
3.6030343E+002
  0
ARC
  5
359
100
AcDbEntity
  8
1
100
AcDbCircle
  6
CONTINUOUS
 62
40
 10
3.5468274E+002
 20
2.6302961E+002
 40
1.8506957
100
AcDbArc
 50
3.0331545E-001
 51
5.1610738E+001
  0
ARC
  5
35a
100
AcDbEntity
  8
1
100
AcDbCircle
  6
CONTINUOUS
 62
40
 10
3.5060316E+002
 20
2.67333E+002
 40
5.9564626
100
AcDbArc
 50
3.3138376E+002
 51
3.6026235E+002
  0
ARC
  5
35b
100
AcDbEntity
  8
1
100
AcDbCircle
  6
CONTINUOUS
 62
40
 10
3.5049578E+002
 20
2.6733256E+002
 40
6.0638415
100
AcDbArc
 50
2.6184418E-001
 51
2.8798614E+001
  0
LINE
  5
35c
100
AcDbEntity
  8
1
100
AcDbLine
  6
CONTINUOUS
 62
40
 10
3.5580964E+002
 20
2.7025371E+002
 11
3.5584683E+002
 21
2.7025371E+002
  0
ARC
  5
35d
100
AcDbEntity
  8
1
100
AcDbCircle
  6
CONTINUOUS
 62
40
 10
3.5468541E+002
 20
2.7169371E+002
 40
1.8500001
100
AcDbArc
 50
3.0888768E+002
 51
4.114466E+002
  0
LINE
  5
35e
100
AcDbEntity
  8
1
100
AcDbLine
  6
CONTINUOUS
 62
40
 10
3.5583841E+002
 20
2.7314046E+002
 11
3.5353202E+002
 21
2.7314046E+002
  0
ARC
  5
35f
100
AcDbEntity
  8
1
100
AcDbCircle
  6
CONTINUOUS
 62
40
 10
3.5353203E+002
 20
2.7264046E+002
 40
5.0000007E-001
100
AcDbArc
 50
9.0E+001
 51
1.8E+002
  0
LINE
  5
360
100
AcDbEntity
  8
1
100
AcDbLine
  6
CONTINUOUS
 62
40
 10
3.5303202E+002
 20
2.7264046E+002
 11
3.5303202E+002
 21
2.7198576E+002
  0
LINE
  5
361
100
AcDbEntity
  8
1
100
AcDbLine
  6
CONTINUOUS
 62
40
 10
3.5303202E+002
 20
2.7198576E+002
 11
3.5303202E+002
 21
2.7036696E+002
  0
LINE
  5
362
100
AcDbEntity
  8
1
100
AcDbLine
  6
CONTINUOUS
 62
40
 10
3.5303202E+002
 20
2.7036696E+002
 11
3.380595E+002
 21
2.7036696E+002
  0
LINE
  5
363
100
AcDbEntity
  8
1
100
AcDbLine
  6
CENTERLINE
 62
1
 10
4.678877E+002
 20
3.0319871E+002
 11
4.678877E+002
 21
3.7240266E+002
  0
LINE
  5
364
100
AcDbEntity
  8
1
100
AcDbLine
  6
CENTERLINE
 62
1
 10
1.3405957E+002
 20
3.0611547E+002
 11
1.3405957E+002
 21
3.7022931E+002
  0
LINE
  5
365
100
AcDbEntity
  8
1
100
AcDbLine
  6
CONTINUOUS
 62
40
 10
7.9059577E+001
 20
3.6318237E+002
 11
7.9059577E+001
 21
3.1368238E+002
  0
LINE
  5
366
100
AcDbEntity
  8
1
100
AcDbLine
  6
CONTINUOUS
 62
40
 10
7.9059577E+001
 20
3.1368238E+002
 11
3.5405958E+002
 21
3.1368238E+002
  0
LINE
  5
367
100
AcDbEntity
  8
1
100
AcDbLine
  6
CONTINUOUS
 62
40
 10
3.5405958E+002
 20
3.1368238E+002
 11
3.5405958E+002
 21
3.6318237E+002
  0
LINE
  5
368
100
AcDbEntity
  8
1
100
AcDbLine
  6
CONTINUOUS
 62
40
 10
3.5405958E+002
 20
3.6318237E+002
 11
7.9059577E+001
 21
3.6318237E+002
  0
LINE
  5
369
100
AcDbEntity
  8
1
100
AcDbLine
  6
CONTINUOUS
 62
40
 10
4.268877E+002
 20
3.6318237E+002
 11
4.268877E+002
 21
3.1368238E+002
  0
LINE
  5
36a
100
AcDbEntity
  8
1
100
AcDbLine
  6
CONTINUOUS
 62
40
 10
4.268877E+002
 20
3.1368238E+002
 11
5.088877E+002
 21
3.1368238E+002
  0
LINE
  5
36b
100
AcDbEntity
  8
1
100
AcDbLine
  6
CONTINUOUS
 62
40
 10
5.088877E+002
 20
3.1368238E+002
 11
5.088877E+002
 21
3.6318237E+002
  0
LINE
  5
36c
100
AcDbEntity
  8
1
100
AcDbLine
  6
CONTINUOUS
 62
40
 10
5.088877E+002
 20
3.6318237E+002
 11
4.268877E+002
 21
3.6318237E+002
  0
LINE
  5
36d
100
AcDbEntity
  8
1
100
AcDbLine
  6
CONTINUOUS
 62
1
 10
2.6835733E+002
 20
9.9291844E+001
 11
2.6835733E+002
 21
1.0059272E+002
  0
LINE
  5
36e
100
AcDbEntity
  8
1
100
AcDbLine
  6
CONTINUOUS
 62
1
 10
2.6835733E+002
 20
1.0059272E+002
 11
2.6582563E+002
 21
1.0013703E+002
  0
LINE
  5
36f
100
AcDbEntity
  8
1
100
AcDbLine
  6
CONTINUOUS
 62
1
 10
2.6582563E+002
 20
1.0013703E+002
 11
2.6582563E+002
 21
9.9747518E+001
  0
LINE
  5
370
100
AcDbEntity
  8
1
100
AcDbLine
  6
CONTINUOUS
 62
1
 10
2.6582563E+002
 20
9.9747518E+001
 11
2.6835733E+002
 21
9.9291844E+001
  0
LINE
  5
371
100
AcDbEntity
  8
1
100
AcDbLine
  6
CONTINUOUS
 62
1
 10
2.7069428E+002
 20
9.6534245E+001
 11
2.6407293E+002
 21
9.8092183E+001
  0
LINE
  5
372
100
AcDbEntity
  8
1
100
AcDbLine
  6
CONTINUOUS
 62
1
 10
2.6407293E+002
 20
9.8092183E+001
 11
2.6407293E+002
 21
1.0179233E+002
  0
LINE
  5
373
100
AcDbEntity
  8
1
100
AcDbLine
  6
CONTINUOUS
 62
1
 10
2.6407293E+002
 20
1.0179233E+002
 11
2.7069428E+002
 21
1.0335032E+002
  0
LINE
  5
374
100
AcDbEntity
  8
1
100
AcDbLine
  6
CONTINUOUS
 62
1
 10
2.7069428E+002
 20
1.0335032E+002
 11
2.7069428E+002
 21
1.0101339E+002
  0
LINE
  5
375
100
AcDbEntity
  8
1
100
AcDbLine
  6
CONTINUOUS
 62
1
 10
2.7069428E+002
 20
1.0101339E+002
 11
2.6952582E+002
 21
1.0080303E+002
  0
LINE
  5
376
100
AcDbEntity
  8
1
100
AcDbLine
  6
CONTINUOUS
 62
1
 10
2.6952582E+002
 20
1.0080303E+002
 11
2.6952582E+002
 21
9.9081487E+001
  0
LINE
  5
377
100
AcDbEntity
  8
1
100
AcDbLine
  6
CONTINUOUS
 62
1
 10
2.6952582E+002
 20
9.9081487E+001
 11
2.7069428E+002
 21
9.887116E+001
  0
LINE
  5
378
100
AcDbEntity
  8
1
100
AcDbLine
  6
CONTINUOUS
 62
1
 10
2.7069428E+002
 20
9.887116E+001
 11
2.7069428E+002
 21
9.6534245E+001
  0
LINE
  5
379
100
AcDbEntity
  8
1
100
AcDbLine
  6
CONTINUOUS
 62
1
 10
2.7069428E+002
 20
8.9912877E+001
 11
2.7069428E+002
 21
8.7965428E+001
  0
LINE
  5
37a
100
AcDbEntity
  8
1
100
AcDbLine
  6
CONTINUOUS
 62
1
 10
2.7069428E+002
 20
8.7965428E+001
 11
2.6407293E+002
 21
8.7965428E+001
  0
LINE
  5
37b
100
AcDbEntity
  8
1
100
AcDbLine
  6
CONTINUOUS
 62
1
 10
2.6407293E+002
 20
8.7965428E+001
 11
2.6407293E+002
 21
9.1081334E+001
  0
LINE
  5
37c
100
AcDbEntity
  8
1
100
AcDbLine
  6
CONTINUOUS
 62
1
 10
2.6407293E+002
 20
9.1081334E+001
 11
2.6796784E+002
 21
9.1938237E+001
  0
LINE
  5
37d
100
AcDbEntity
  8
1
100
AcDbLine
  6
CONTINUOUS
 62
1
 10
2.6796784E+002
 20
9.1938237E+001
 11
2.6796784E+002
 21
9.2055058E+001
  0
LINE
  5
37e
100
AcDbEntity
  8
1
100
AcDbLine
  6
CONTINUOUS
 62
1
 10
2.6796784E+002
 20
9.2055058E+001
 11
2.6796784E+002
 21
9.2171926E+001
  0
LINE
  5
37f
100
AcDbEntity
  8
1
100
AcDbLine
  6
CONTINUOUS
 62
1
 10
2.6796784E+002
 20
9.2171926E+001
 11
2.6407293E+002
 21
9.3028829E+001
  0
LINE
  5
380
100
AcDbEntity
  8
1
100
AcDbLine
  6
CONTINUOUS
 62
1
 10
2.6407293E+002
 20
9.3028829E+001
 11
2.6407293E+002
 21
9.6144734E+001
  0
LINE
  5
381
100
AcDbEntity
  8
1
100
AcDbLine
  6
CONTINUOUS
 62
1
 10
2.6407293E+002
 20
9.6144734E+001
 11
2.7069428E+002
 21
9.6144734E+001
  0
LINE
  5
382
100
AcDbEntity
  8
1
100
AcDbLine
  6
CONTINUOUS
 62
1
 10
2.7069428E+002
 20
9.6144734E+001
 11
2.7069428E+002
 21
9.4197286E+001
  0
LINE
  5
383
100
AcDbEntity
  8
1
100
AcDbLine
  6
CONTINUOUS
 62
1
 10
2.7069428E+002
 20
9.4197286E+001
 11
2.6582563E+002
 21
9.4197286E+001
  0
LINE
  5
384
100
AcDbEntity
  8
1
100
AcDbLine
  6
CONTINUOUS
 62
1
 10
2.6582563E+002
 20
9.4197286E+001
 11
2.6582563E+002
 21
9.4002553E+001
  0
LINE
  5
385
100
AcDbEntity
  8
1
100
AcDbLine
  6
CONTINUOUS
 62
1
 10
2.6582563E+002
 20
9.4002553E+001
 11
2.7069428E+002
 21
9.2931416E+001
  0
LINE
  5
386
100
AcDbEntity
  8
1
100
AcDbLine
  6
CONTINUOUS
 62
1
 10
2.7069428E+002
 20
9.2931416E+001
 11
2.7069428E+002
 21
9.11787E+001
  0
LINE
  5
387
100
AcDbEntity
  8
1
100
AcDbLine
  6
CONTINUOUS
 62
1
 10
2.7069428E+002
 20
9.11787E+001
 11
2.6582563E+002
 21
9.010761E+001
  0
LINE
  5
388
100
AcDbEntity
  8
1
100
AcDbLine
  6
CONTINUOUS
 62
1
 10
2.6582563E+002
 20
9.010761E+001
 11
2.6582563E+002
 21
8.9912877E+001
  0
LINE
  5
389
100
AcDbEntity
  8
1
100
AcDbLine
  6
CONTINUOUS
 62
1
 10
2.6582563E+002
 20
8.9912877E+001
 11
2.7069428E+002
 21
8.9912877E+001
  0
ARC
  5
38a
100
AcDbEntity
  8
1
100
AcDbCircle
  6
CONTINUOUS
 62
1
 10
2.6608854E+002
 20
8.4187352E+001
 40
6.6212458E-001
100
AcDbArc
 50
0.0
 51
8.9997354E+001
  0
LINE
  5
38b
100
AcDbEntity
  8
1
100
AcDbLine
  6
CONTINUOUS
 62
1
 10
2.6675066E+002
 20
8.4187352E+001
 11
2.6675066E+002
 21
8.3291539E+001
  0
LINE
  5
38c
100
AcDbEntity
  8
1
100
AcDbLine
  6
CONTINUOUS
 62
1
 10
2.6675066E+002
 20
8.3291539E+001
 11
2.652901E+002
 21
8.3291539E+001
  0
LINE
  5
38d
100
AcDbEntity
  8
1
100
AcDbLine
  6
CONTINUOUS
 62
1
 10
2.652901E+002
 20
8.3291539E+001
 11
2.652901E+002
 21
8.4187352E+001
  0
ARC
  5
38e
100
AcDbEntity
  8
1
100
AcDbCircle
  6
CONTINUOUS
 62
1
 10
2.6595226E+002
 20
8.4187347E+001
 40
6.6216062E-001
100
AcDbArc
 50
9.0001784E+001
 51
1.7999953E+002
  0
LINE
  5
38f
100
AcDbEntity
  8
1
100
AcDbLine
  6
CONTINUOUS
 62
1
 10
2.6595224E+002
 20
8.4849507E+001
 11
2.6608857E+002
 21
8.4849477E+001
  0
LINE
  5
390
100
AcDbEntity
  8
1
100
AcDbLine
  6
CONTINUOUS
 62
1
 10
2.7069428E+002
 20
8.134406E+001
 11
2.6407293E+002
 21
8.134406E+001
  0
LINE
  5
391
100
AcDbEntity
  8
1
100
AcDbLine
  6
CONTINUOUS
 62
1
 10
2.6407293E+002
 20
8.134406E+001
 11
2.6407293E+002
 21
8.5238988E+001
  0
ARC
  5
392
100
AcDbEntity
  8
1
100
AcDbCircle
  6
CONTINUOUS
 62
1
 10
2.6602038E+002
 20
8.523898E+001
 40
1.9474564
100
AcDbArc
 50
8.9999776E+001
 51
1.7999978E+002
  0
ARC
  5
393
100
AcDbEntity
  8
1
100
AcDbCircle
  6
CONTINUOUS
 62
1
 10
2.6602225E+002
 20
8.5047968E+001
 40
2.1384698
100
AcDbArc
 50
7.2242164E+001
 51
9.0049771E+001
  0
ARC
  5
394
100
AcDbEntity
  8
1
100
AcDbCircle
  6
CONTINUOUS
 62
1
 10
2.6605284E+002
 20
8.5139258E+001
 40
2.0421979
100
AcDbArc
 50
5.391526E+001
 51
7.2278532E+001
  0
ARC
  5
395
100
AcDbEntity
  8
1
100
AcDbCircle
  6
CONTINUOUS
 62
1
 10
2.6612099E+002
 20
8.5232506E+001
 40
1.926702
100
AcDbArc
 50
3.4829806E+001
 51
5.3919759E+001
  0
ARC
  5
396
100
AcDbEntity
  8
1
100
AcDbCircle
  6
CONTINUOUS
 62
1
 10
2.6619198E+002
 20
8.5283324E+001
 40
1.839409
100
AcDbArc
 50
1.5104526E+001
 51
3.4793322E+001
  0
LINE
  5
397
100
AcDbEntity
  8
1
100
AcDbLine
  6
CONTINUOUS
 62
1
 10
2.6796784E+002
 20
8.5762639E+001
 11
2.7069428E+002
 21
8.7186437E+001
  0
LINE
  5
398
100
AcDbEntity
  8
1
100
AcDbLine
  6
CONTINUOUS
 62
1
 10
2.7069428E+002
 20
8.7186437E+001
 11
2.7069428E+002
 21
8.5044255E+001
  0
LINE
  5
399
100
AcDbEntity
  8
1
100
AcDbLine
  6
CONTINUOUS
 62
1
 10
2.7069428E+002
 20
8.5044255E+001
 11
2.6796784E+002
 21
8.3953664E+001
  0
LINE
  5
39a
100
AcDbEntity
  8
1
100
AcDbLine
  6
CONTINUOUS
 62
1
 10
2.6796784E+002
 20
8.3953664E+001
 11
2.6796784E+002
 21
8.3291539E+001
  0
LINE
  5
39b
100
AcDbEntity
  8
1
100
AcDbLine
  6
CONTINUOUS
 62
1
 10
2.6796784E+002
 20
8.3291539E+001
 11
2.7069428E+002
 21
8.3291539E+001
  0
LINE
  5
39c
100
AcDbEntity
  8
1
100
AcDbLine
  6
CONTINUOUS
 62
1
 10
2.7069428E+002
 20
8.3291539E+001
 11
2.7069428E+002
 21
8.134406E+001
  0
ARC
  5
39d
100
AcDbEntity
  8
1
100
AcDbCircle
  6
CONTINUOUS
 62
1
 10
2.6866893E+002
 20
7.7712066E+001
 40
6.6212953E-001
100
AcDbArc
 50
4.179009E-004
 51
9.0000906E+001
  0
LINE
  5
39e
100
AcDbEntity
  8
1
100
AcDbLine
  6
CONTINUOUS
 62
1
 10
2.6933106E+002
 20
7.7712071E+001
 11
2.6933106E+002
 21
7.7575749E+001
  0
ARC
  5
39f
100
AcDbEntity
  8
1
100
AcDbCircle
  6
CONTINUOUS
 62
1
 10
2.6866892E+002
 20
7.757576E+001
 40
6.621354E-001
100
AcDbArc
 50
2.699996E+002
 51
3.5999907E+002
  0
LINE
  5
3a0
100
AcDbEntity
  8
1
100
AcDbLine
  6
CONTINUOUS
 62
1
 10
2.6866892E+002
 20
7.6913625E+001
 11
2.6609827E+002
 21
7.6913625E+001
  0
ARC
  5
3a1
100
AcDbEntity
  8
1
100
AcDbCircle
  6
CONTINUOUS
 62
1
 10
2.6609826E+002
 20
7.7575756E+001
 40
6.6213111E-001
100
AcDbArc
 50
1.8000056E+002
 51
2.7000077E+002
  0
LINE
  5
3a2
100
AcDbEntity
  8
1
100
AcDbLine
  6
CONTINUOUS
 62
1
 10
2.6543613E+002
 20
7.7575749E+001
 11
2.6543613E+002
 21
7.7712071E+001
  0
ARC
  5
3a3
100
AcDbEntity
  8
1
100
AcDbCircle
  6
CONTINUOUS
 62
1
 10
2.6609826E+002
 20
7.7712055E+001
 40
6.6212524E-001
100
AcDbArc
 50
8.9998723E+001
 51
1.7999863E+002
  0
LINE
  5
3a4
100
AcDbEntity
  8
1
100
AcDbLine
  6
CONTINUOUS
 62
1
 10
2.6609827E+002
 20
7.8374181E+001
 11
2.6866892E+002
 21
7.8374196E+001
  0
ARC
  5
3a5
100
AcDbEntity
  8
1
100
AcDbCircle
  6
CONTINUOUS
 62
1
 10
2.6835734E+002
 20
7.8228131E+001
 40
2.3369371
100
AcDbArc
 50
1.880876E-004
 51
9.0000194E+001
  0
LINE
  5
3a6
100
AcDbEntity
  8
1
100
AcDbLine
  6
CONTINUOUS
 62
1
 10
2.7069428E+002
 20
7.8228139E+001
 11
2.7069428E+002
 21
7.7059682E+001
  0
ARC
  5
3a7
100
AcDbEntity
  8
1
100
AcDbCircle
  6
CONTINUOUS
 62
1
 10
2.6835731E+002
 20
7.7059666E+001
 40
2.3369667
100
AcDbArc
 50
2.7000053E+002
 51
3.6000039E+002
  0
LINE
  5
3a8
100
AcDbEntity
  8
1
100
AcDbLine
  6
CONTINUOUS
 62
1
 10
2.6835733E+002
 20
7.4722699E+001
 11
2.6640989E+002
 21
7.4722699E+001
  0
ARC
  5
3a9
100
AcDbEntity
  8
1
100
AcDbCircle
  6
CONTINUOUS
 62
1
 10
2.6640989E+002
 20
7.7059666E+001
 40
2.3369668
100
AcDbArc
 50
1.7999961E+002
 51
2.6999983E+002
  0
LINE
  5
3aa
100
AcDbEntity
  8
1
100
AcDbLine
  6
CONTINUOUS
 62
1
 10
2.6407293E+002
 20
7.7059682E+001
 11
2.6407293E+002
 21
7.8228139E+001
  0
ARC
  5
3ab
100
AcDbEntity
  8
1
100
AcDbCircle
  6
CONTINUOUS
 62
1
 10
2.6640989E+002
 20
7.8228138E+001
 40
2.336961
100
AcDbArc
 50
9.0000026E+001
 51
1.7999997E+002
  0
LINE
  5
3ac
100
AcDbEntity
  8
1
100
AcDbLine
  6
CONTINUOUS
 62
1
 10
2.6640989E+002
 20
8.0565099E+001
 11
2.6835733E+002
 21
8.0565068E+001
  0
ARC
  5
3ad
100
AcDbEntity
  8
1
100
AcDbCircle
  6
CONTINUOUS
 62
1
 10
2.6855207E+002
 20
7.1801525E+001
 40
2.1422051
100
AcDbArc
 50
6.34961E-004
 51
9.0000183E+001
  0
LINE
  5
3ae
100
AcDbEntity
  8
1
100
AcDbLine
  6
CONTINUOUS
 62
1
 10
2.7069428E+002
 20
7.1801549E+001
 11
2.7069428E+002
 21
6.8296132E+001
  0
LINE
  5
3af
100
AcDbEntity
  8
1
100
AcDbLine
  6
CONTINUOUS
 62
1
 10
2.7069428E+002
 20
6.8296132E+001
 11
2.6407293E+002
 21
6.8296132E+001
  0
LINE
  5
3b0
100
AcDbEntity
  8
1
100
AcDbLine
  6
CONTINUOUS
 62
1
 10
2.6407293E+002
 20
6.8296132E+001
 11
2.6407293E+002
 21
7.1801549E+001
  0
ARC
  5
3b1
100
AcDbEntity
  8
1
100
AcDbCircle
  6
CONTINUOUS
 62
1
 10
2.6621512E+002
 20
7.180154E+001
 40
2.1421902
100
AcDbArc
 50
8.9999819E+001
 51
1.7999976E+002
  0
LINE
  5
3b2
100
AcDbEntity
  8
1
100
AcDbLine
  6
CONTINUOUS
 62
1
 10
2.6621512E+002
 20
7.394373E+001
 11
2.6855207E+002
 21
7.394373E+001
  0
ARC
  5
3b3
100
AcDbEntity
  8
1
100
AcDbCircle
  6
CONTINUOUS
 62
1
 10
2.6894156E+002
 20
7.1412046E+001
 40
3.8950297E-001
100
AcDbArc
 50
3.599988E+002
 51
4.4999897E+002
  0
LINE
  5
3b4
100
AcDbEntity
  8
1
100
AcDbLine
  6
CONTINUOUS
 62
1
 10
2.6933106E+002
 20
7.1412038E+001
 11
2.6933106E+002
 21
7.0438313E+001
  0
LINE
  5
3b5
100
AcDbEntity
  8
1
100
AcDbLine
  6
CONTINUOUS
 62
1
 10
2.6933106E+002
 20
7.0438313E+001
 11
2.6543613E+002
 21
7.0438313E+001
  0
LINE
  5
3b6
100
AcDbEntity
  8
1
100
AcDbLine
  6
CONTINUOUS
 62
1
 10
2.6543613E+002
 20
7.0438313E+001
 11
2.6543613E+002
 21
7.1412038E+001
  0
ARC
  5
3b7
100
AcDbEntity
  8
1
100
AcDbCircle
  6
CONTINUOUS
 62
1
 10
2.6582563E+002
 20
7.1412035E+001
 40
3.8949868E-001
100
AcDbArc
 50
9.0000394E+001
 51
1.7999958E+002
  0
LINE
  5
3b8
100
AcDbEntity
  8
1
100
AcDbLine
  6
CONTINUOUS
 62
1
 10
2.6582563E+002
 20
7.1801534E+001
 11
2.6894156E+002
 21
7.1801549E+001
  0
ARC
  5
3b9
100
AcDbEntity
  8
1
100
AcDbCircle
  6
CONTINUOUS
 62
1
 10
2.2631613E+002
 20
8.4878353E+001
 40
3.1795201E+001
100
AcDbArc
 50
3.2080504E+002
 51
3.5231284E+002
  0
LINE
  5
3ba
100
AcDbEntity
  8
1
100
AcDbLine
  6
CONTINUOUS
 62
1
 10
2.5095742E+002
 20
6.4785024E+001
 11
2.6288062E+002
 21
6.8185872E+001
  0
LINE
  5
3bb
100
AcDbEntity
  8
1
100
AcDbLine
  6
CONTINUOUS
 62
1
 10
2.6288062E+002
 20
6.8185872E+001
 11
2.6288062E+002
 21
7.0684682E+001
  0
LINE
  5
3bc
100
AcDbEntity
  8
1
100
AcDbLine
  6
CONTINUOUS
 62
1
 10
2.6288062E+002
 20
7.0684682E+001
 11
2.5703666E+002
 21
6.9008962E+001
  0
ARC
  5
3bd
100
AcDbEntity
  8
1
100
AcDbCircle
  6
CONTINUOUS
 62
1
 10
2.2631612E+002
 20
8.4878321E+001
 40
3.4577272E+001
100
AcDbArc
 50
3.326804E+002
 51
3.5043333E+002
  0
ARC
  5
3be
100
AcDbEntity
  8
1
100
AcDbCircle
  6
CONTINUOUS
 62
1
 10
2.2631616E+002
 20
8.4878582E+001
 40
3.4577274E+001
100
AcDbArc
 50
3.504329E+002
 51
3.5471314E+002
  0
LINE
  5
3bf
100
AcDbEntity
  8
1
100
AcDbLine
  6
CONTINUOUS
 62
1
 10
2.6074634E+002
 20
8.1692555E+001
 11
2.5522837E+002
 21
8.4878362E+001
  0
LINE
  5
3c0
100
AcDbEntity
  8
1
100
AcDbLine
  6
CONTINUOUS
 62
1
 10
2.5522837E+002
 20
8.4878362E+001
 11
2.6074634E+002
 21
8.8064183E+001
  0
ARC
  5
3c1
100
AcDbEntity
  8
1
100
AcDbCircle
  6
CONTINUOUS
 62
1
 10
2.2631612E+002
 20
8.4878401E+001
 40
3.4577291E+001
100
AcDbArc
 50
5.2864506
 51
2.7319614E+001
  0
LINE
  5
3c2
100
AcDbEntity
  8
1
100
AcDbLine
  6
CONTINUOUS
 62
1
 10
2.5703667E+002
 20
1.0074778E+002
 11
2.6288062E+002
 21
9.9072057E+001
  0
LINE
  5
3c3
100
AcDbEntity
  8
1
100
AcDbLine
  6
CONTINUOUS
 62
1
 10
2.6288062E+002
 20
9.9072057E+001
 11
2.6288062E+002
 21
1.0157085E+002
  0
LINE
  5
3c4
100
AcDbEntity
  8
1
100
AcDbLine
  6
CONTINUOUS
 62
1
 10
2.6288062E+002
 20
1.0157085E+002
 11
2.5095742E+002
 21
1.0497172E+002
  0
ARC
  5
3c5
100
AcDbEntity
  8
1
100
AcDbCircle
  6
CONTINUOUS
 62
1
 10
2.2631613E+002
 20
8.4878383E+001
 40
3.1795207E+001
100
AcDbArc
 50
7.6871667
 51
3.9194953E+001
  0
LINE
  5
3c6
100
AcDbEntity
  8
1
100
AcDbLine
  6
CONTINUOUS
 62
1
 10
2.578256E+002
 20
8.9131444E+001
 11
2.5045908E+002
 21
8.4878362E+001
  0
LINE
  5
3c7
100
AcDbEntity
  8
1
100
AcDbLine
  6
CONTINUOUS
 62
1
 10
2.5045908E+002
 20
8.4878362E+001
 11
2.578256E+002
 21
8.0625295E+001
  0
LINE
  5
3c8
100
AcDbEntity
  8
1
100
AcDbLine
  6
CENTERLINE
 62
1
 10
2.3405959E+002
 20
4.4585332E+001
 11
2.3405959E+002
 21
6.2374394E+001
  0
LINE
  5
3c9
100
AcDbEntity
  8
1
100
AcDbLine
  6
CENTERLINE
 62
1
 10
2.8705952E+002
 20
6.2374409E+001
 11
2.8705952E+002
 21
4.4585347E+001
  0
LINE
  5
3ca
100
AcDbEntity
  8
1
100
AcDbLine
  6
CENTERLINE
 62
1
 10
2.9573139E+002
 20
5.2870503E+001
 11
2.7716889E+002
 21
5.2870503E+001
  0
LINE
  5
3cb
100
AcDbEntity
  8
1
100
AcDbLine
  6
CENTERLINE
 62
1
 10
2.4467678E+002
 20
5.2870488E+001
 11
2.245674E+002
 21
5.2870488E+001
  0
CIRCLE
  5
3cc
100
AcDbEntity
  8
1
100
AcDbCircle
  6
CONTINUOUS
 62
40
 10
2.3405959E+002
 20
5.2870488E+001
 40
4.75
  0
CIRCLE
  5
3cd
100
AcDbEntity
  8
1
100
AcDbCircle
  6
CONTINUOUS
 62
40
 10
2.8705952E+002
 20
5.2870503E+001
 40
4.75
  0
CIRCLE
  5
3ce
100
AcDbEntity
  8
1
100
AcDbCircle
  6
CONTINUOUS
 62
40
 10
2.3405959E+002
 20
5.2870488E+001
 40
3.25
  0
CIRCLE
  5
3cf
100
AcDbEntity
  8
1
100
AcDbCircle
  6
CONTINUOUS
 62
40
 10
2.8705952E+002
 20
5.2870503E+001
 40
3.25
  0
LINE
  5
3d0
100
AcDbEntity
  8
1
100
AcDbLine
  6
CONTINUOUS
 62
1
 10
7.3059577E+001
 20
3.7370468E+001
 11
1.4605955E+002
 21
3.7370468E+001
  0
LINE
  5
3d1
100
AcDbEntity
  8
1
100
AcDbLine
  6
CONTINUOUS
 62
1
 10
1.4805955E+002
 20
3.7370468E+001
 11
3.5405956E+002
 21
3.7370483E+001
  0
LINE
  5
3d2
100
AcDbEntity
  8
1
100
AcDbLine
  6
CONTINUOUS
 62
1
 10
3.5405956E+002
 20
3.7370483E+001
 11
3.5405956E+002
 21
8.4870483E+001
  0
LINE
  5
3d3
100
AcDbEntity
  8
1
100
AcDbLine
  6
CONTINUOUS
 62
1
 10
3.5405959E+002
 20
3.7370497E+001
 11
3.5905959E+002
 21
3.2370497E+001
  0
LINE
  5
3d4
100
AcDbEntity
  8
1
100
AcDbLine
  6
CENTERLINE
 62
1
 10
7.0301764E+001
 20
8.4870468E+001
 11
1.7104398E+002
 21
8.4870468E+001
  0
LINE
  5
3d5
100
AcDbEntity
  8
1
100
AcDbLine
  6
CONTINUOUS
 62
40
 10
3.5905959E+002
 20
8.4870497E+001
 11
3.5905959E+002
 21
3.2370497E+001
  0
LINE
  5
3d6
100
AcDbEntity
  8
1
100
AcDbLine
  6
CONTINUOUS
 62
40
 10
3.5905959E+002
 20
3.2370497E+001
 11
1.4805956E+002
 21
3.2370482E+001
  0
LINE
  5
3d7
100
AcDbEntity
  8
1
100
AcDbLine
  6
CONTINUOUS
 62
40
 10
1.4805956E+002
 20
3.2370482E+001
 11
1.4805956E+002
 21
4.5870482E+001
  0
LINE
  5
3d8
100
AcDbEntity
  8
1
100
AcDbLine
  6
CONTINUOUS
 62
40
 10
1.4805956E+002
 20
4.5870482E+001
 11
7.305959E+001
 21
4.5870482E+001
  0
LINE
  5
3d9
100
AcDbEntity
  8
1
100
AcDbLine
  6
CONTINUOUS
 62
40
 10
7.305959E+001
 20
4.5870482E+001
 11
7.305959E+001
 21
6.4870482E+001
  0
LINE
  5
3da
100
AcDbEntity
  8
1
100
AcDbLine
  6
CONTINUOUS
 62
40
 10
7.305959E+001
 20
6.4870482E+001
 11
1.3405959E+002
 21
6.4870482E+001
  0
ARC
  5
3db
100
AcDbEntity
  8
1
100
AcDbCircle
  6
CONTINUOUS
 62
40
 10
1.3405959E+002
 20
8.4870482E+001
 40
2.0E+001
100
AcDbArc
 50
2.7E+002
 51
3.6E+002
  0
LINE
  5
3dc
100
AcDbEntity
  8
1
100
AcDbLine
  6
CONTINUOUS
 62
40
 10
1.4605955E+002
 20
4.5870468E+001
 11
1.4605955E+002
 21
3.2370468E+001
  0
LINE
  5
3dd
100
AcDbEntity
  8
1
100
AcDbLine
  6
CONTINUOUS
 62
40
 10
1.4605955E+002
 20
3.2370468E+001
 11
7.3059577E+001
 21
3.2370468E+001
  0
LINE
  5
3de
100
AcDbEntity
  8
1
100
AcDbLine
  6
CONTINUOUS
 62
40
 10
7.3059577E+001
 20
3.2370468E+001
 11
7.3059577E+001
 21
4.5870468E+001
  0
LINE
  5
3df
100
AcDbEntity
  8
1
100
AcDbLine
  6
CENTERLINE
 62
1
 10
1.3405958E+002
 20
1.1260149E+002
 11
1.3405958E+002
 21
6.0685089E+001
  0
LINE
  5
3e0
100
AcDbEntity
  8
1
100
AcDbLine
  6
CENTERLINE
 62
1
 10
2.3405959E+002
 20
1.2515566E+002
 11
2.3405959E+002
 21
1.073666E+002
  0
LINE
  5
3e1
100
AcDbEntity
  8
1
100
AcDbLine
  6
CENTERLINE
 62
1
 10
2.8705952E+002
 20
1.0736658E+002
 11
2.8705952E+002
 21
1.2515564E+002
  0
LINE
  5
3e2
100
AcDbEntity
  8
1
100
AcDbLine
  6
CENTERLINE
 62
1
 10
2.9573139E+002
 20
1.1687049E+002
 11
2.8356473E+002
 21
1.1687049E+002
  0
LINE
  5
3e3
100
AcDbEntity
  8
1
100
AcDbLine
  6
CENTERLINE
 62
1
 10
2.4467678E+002
 20
1.168705E+002
 11
2.245674E+002
 21
1.168705E+002
  0
CIRCLE
  5
3e4
100
AcDbEntity
  8
1
100
AcDbCircle
  6
CONTINUOUS
 62
40
 10
2.3405959E+002
 20
1.168705E+002
 40
4.75
  0
CIRCLE
  5
3e5
100
AcDbEntity
  8
1
100
AcDbCircle
  6
CONTINUOUS
 62
40
 10
2.8705952E+002
 20
1.1687049E+002
 40
4.75
  0
CIRCLE
  5
3e6
100
AcDbEntity
  8
1
100
AcDbCircle
  6
CONTINUOUS
 62
40
 10
2.3405959E+002
 20
1.168705E+002
 40
3.25
  0
CIRCLE
  5
3e7
100
AcDbEntity
  8
1
100
AcDbCircle
  6
CONTINUOUS
 62
40
 10
2.8705952E+002
 20
1.1687049E+002
 40
3.25
  0
LINE
  5
3e8
100
AcDbEntity
  8
1
100
AcDbLine
  6
CONTINUOUS
 62
1
 10
7.305959E+001
 20
1.3237048E+002
 11
1.4605956E+002
 21
1.3237048E+002
  0
LINE
  5
3e9
100
AcDbEntity
  8
1
100
AcDbLine
  6
CONTINUOUS
 62
1
 10
1.4805956E+002
 20
1.3237048E+002
 11
3.5405959E+002
 21
1.3237047E+002
  0
LINE
  5
3ea
100
AcDbEntity
  8
1
100
AcDbLine
  6
CONTINUOUS
 62
1
 10
3.5405959E+002
 20
1.3237047E+002
 11
3.5405959E+002
 21
8.4870467E+001
  0
LINE
  5
3eb
100
AcDbEntity
  8
1
100
AcDbLine
  6
CONTINUOUS
 62
1
 10
3.5405959E+002
 20
1.3237047E+002
 11
3.5905959E+002
 21
1.3737047E+002
  0
LINE
  5
3ec
100
AcDbEntity
  8
1
100
AcDbLine
  6
CONTINUOUS
 62
40
 10
3.5905956E+002
 20
8.4870453E+001
 11
3.5905956E+002
 21
1.3737045E+002
  0
LINE
  5
3ed
100
AcDbEntity
  8
1
100
AcDbLine
  6
CONTINUOUS
 62
40
 10
3.5905956E+002
 20
1.3737045E+002
 11
1.4805955E+002
 21
1.3737047E+002
  0
LINE
  5
3ee
100
AcDbEntity
  8
1
100
AcDbLine
  6
CONTINUOUS
 62
40
 10
1.4805955E+002
 20
1.3737047E+002
 11
1.4805955E+002
 21
1.2387047E+002
  0
LINE
  5
3ef
100
AcDbEntity
  8
1
100
AcDbLine
  6
CONTINUOUS
 62
40
 10
1.4805955E+002
 20
1.2387047E+002
 11
7.3059577E+001
 21
1.2387047E+002
  0
LINE
  5
3f0
100
AcDbEntity
  8
1
100
AcDbLine
  6
CONTINUOUS
 62
40
 10
7.3059577E+001
 20
1.2387047E+002
 11
7.3059577E+001
 21
1.0487047E+002
  0
LINE
  5
3f1
100
AcDbEntity
  8
1
100
AcDbLine
  6
CONTINUOUS
 62
40
 10
7.3059577E+001
 20
1.0487047E+002
 11
1.3405958E+002
 21
1.0487047E+002
  0
ARC
  5
3f2
100
AcDbEntity
  8
1
100
AcDbCircle
  6
CONTINUOUS
 62
40
 10
1.3405958E+002
 20
8.4870468E+001
 40
2.0E+001
100
AcDbArc
 50
0.0
 51
9.0E+001
  0
LINE
  5
3f3
100
AcDbEntity
  8
1
100
AcDbLine
  6
CONTINUOUS
 62
40
 10
1.4605955E+002
 20
1.2387047E+002
 11
1.4605955E+002
 21
1.3737047E+002
  0
LINE
  5
3f4
100
AcDbEntity
  8
1
100
AcDbLine
  6
CONTINUOUS
 62
40
 10
1.4605955E+002
 20
1.3737047E+002
 11
7.3059577E+001
 21
1.3737047E+002
  0
LINE
  5
3f5
100
AcDbEntity
  8
1
100
AcDbLine
  6
CONTINUOUS
 62
40
 10
7.3059577E+001
 20
1.3737047E+002
 11
7.3059577E+001
 21
1.2387047E+002
  0
LINE
  5
3f6
100
AcDbEntity
  8
1
100
AcDbLine
  6
CONTINUOUS
 62
40
 10
4.08239E+002
 20
9.7294251E+001
 11
4.10239E+002
 21
9.7294251E+001
  0
LINE
  5
3f7
100
AcDbEntity
  8
1
100
AcDbLine
  6
CONTINUOUS
 62
40
 10
4.08239E+002
 20
7.2370483E+001
 11
4.10239E+002
 21
7.2370483E+001
  0
LINE
  5
3f8
100
AcDbEntity
  8
1
100
AcDbLine
  6
CENTERLINE
 62
1
 10
4.0636632E+002
 20
8.4870483E+001
 11
4.1269883E+002
 21
8.4870483E+001
  0
LINE
  5
3f9
100
AcDbEntity
  8
1
100
AcDbLine
  6
CONTINUOUS
 62
40
 10
4.08239E+002
 20
3.7755615E+001
 11
4.08239E+002
 21
1.3198529E+002
  0
LINE
  5
3fa
100
AcDbEntity
  8
1
100
AcDbLine
  6
CONTINUOUS
 62
40
 10
4.08239E+002
 20
1.3198529E+002
 11
4.06382E+002
 21
1.3662769E+002
  0
LINE
  5
3fb
100
AcDbEntity
  8
1
100
AcDbLine
  6
CONTINUOUS
 62
40
 10
4.06382E+002
 20
1.3662769E+002
 11
4.08239E+002
 21
1.3737048E+002
  0
LINE
  5
3fc
100
AcDbEntity
  8
1
100
AcDbLine
  6
CONTINUOUS
 62
40
 10
4.08239E+002
 20
1.3737048E+002
 11
4.10239E+002
 21
1.3237048E+002
  0
LINE
  5
3fd
100
AcDbEntity
  8
1
100
AcDbLine
  6
CONTINUOUS
 62
40
 10
4.10239E+002
 20
1.3237048E+002
 11
4.10239E+002
 21
3.7370483E+001
  0
LINE
  5
3fe
100
AcDbEntity
  8
1
100
AcDbLine
  6
CONTINUOUS
 62
40
 10
4.10239E+002
 20
3.7370483E+001
 11
4.08239E+002
 21
3.2370483E+001
  0
LINE
  5
3ff
100
AcDbEntity
  8
1
100
AcDbLine
  6
CONTINUOUS
 62
40
 10
4.08239E+002
 20
3.2370483E+001
 11
4.0638206E+002
 21
3.3113251E+001
  0
LINE
  5
400
100
AcDbEntity
  8
1
100
AcDbLine
  6
CONTINUOUS
 62
40
 10
4.0638206E+002
 20
3.3113251E+001
 11
4.08239E+002
 21
3.7755615E+001
  0
TEXT
  5
401
100
AcDbEntity
  8
1
100
AcDbText
  6
CONTINUOUS
 62
40
 10
1.3023949E+001
 20
4.0444302E+002
 40
5.0
  1
M 1:1
 41
6.3E-001
 72
1
 11
2.0898949E+001
 21
4.0694302E+002
100
AcDbText
 73
2
  0
LINE
  5
402
100
AcDbEntity
  8
1
100
AcDbLine
  6
CONTINUOUS
 62
1
 10
5.0
 20
5.0
 11
5.89E+002
 21
5.0
  0
LINE
  5
403
100
AcDbEntity
  8
1
100
AcDbLine
  6
CONTINUOUS
 62
1
 10
5.89E+002
 20
5.0
 11
5.89E+002
 21
4.15E+002
  0
LINE
  5
404
100
AcDbEntity
  8
1
100
AcDbLine
  6
CONTINUOUS
 62
1
 10
5.89E+002
 20
4.15E+002
 11
5.0
 21
4.15E+002
  0
LINE
  5
405
100
AcDbEntity
  8
1
100
AcDbLine
  6
CONTINUOUS
 62
1
 10
5.0
 20
4.15E+002
 11
5.0
 21
5.0
  0
TEXT
  5
406
100
AcDbEntity
  8
1
100
AcDbText
  6
CONTINUOUS
 62
40
 10
4.7606588E+002
 20
1.6587708E+001
 40
7.0
  1
BTS75V snap fastening
 41
6.5892857E-001
 72
1
 11
5.2449713E+002
 21
2.0087708E+001
100
AcDbText
 73
2
  0
TEXT
  5
407
100
AcDbEntity
  8
2
100
AcDbText
  6
CONTINUOUS
 62
40
 10
0.0
 20
5.0
 40
1.5
  1
5
100
AcDbText
  0
TEXT
  5
408
100
AcDbEntity
  8
2
100
AcDbText
  6
CONTINUOUS
 62
40
 10
0.0
 20
5.0
 40
1.5
  1
0 
100
AcDbText
  0
VIEWPORT
  5
409
100
AcDbEntity
 67
1
  8
0
  6
CONTINUOUS
 62
3
100
AcDbViewport
 10
2.97E+002
 20
2.1E+002
 30
0.0
 40
4.2E+002
 41
4.2E+002
 68
1
 69
1
1001
ACAD
1000
MVIEW
1002
{
1070
16
1010
0.0
1020
0.0
1030
0.0
1010
0.0
1020
0.0
1030
1.0
1040
0.0
1040
4.2E+002
1040
1.6335E+002
1040
2.1E+002
1040
5.0E+001
1040
0.0
1040
0.0
1070
0
1070
1000
1070
1
1070
0
1070
0
1070
0
1070
0
1070
0
1040
0.0
1040
0.0
1040
0.0
1040
5.0E-001
1040
5.0E-001
1040
5.0E-001
1040
5.0E-001
1070
0
1002
{
1002
}
1002
}
  0
VIEWPORT
  5
40a
100
AcDbEntity
 67
1
  8
0
  6
CONTINUOUS
 62
3
100
AcDbViewport
 10
2.97E+002
 20
2.1E+002
 30
0.0
 40
5.94E+002
 41
4.2E+002
 68
2
 69
2
1001
ACAD
1000
MVIEW
1002
{
1070
16
1010
0.0
1020
0.0
1030
0.0
1010
0.0
1020
0.0
1030
1.0
1040
0.0
1040
4.2E+002
1040
2.97E+002
1040
2.1E+002
1040
5.0E+001
1040
0.0
1040
0.0
1070
0
1070
1000
1070
1
1070
0
1070
0
1070
0
1070
0
1070
0
1040
0.0
1040
0.0
1040
0.0
1040
5.0E-001
1040
5.0E-001
1040
5.0E-001
1040
5.0E-001
1070
0
1002
{
1003
2
1002
}
1002
}
  0
VIEWPORT
  5
40b
100
AcDbEntity
 67
1
  8
0
  6
CONTINUOUS
 62
3
100
AcDbViewport
 10
2.5
 20
2.5
 30
0.0
 40
5.0
 41
5.0
 68
3
 69
3
1001
ACAD
1000
MVIEW
1002
{
1070
16
1010
0.0
1020
0.0
1030
0.0
1010
0.0
1020
0.0
1030
1.0
1040
0.0
1040
5.0
1040
2.5
1040
2.5
1040
5.0E+001
1040
0.0
1040
0.0
1070
0
1070
1000
1070
1
1070
0
1070
0
1070
0
1070
0
1070
0
1040
0.0
1040
0.0
1040
0.0
1040
5.0E-001
1040
5.0E-001
1040
5.0E-001
1040
5.0E-001
1070
0
1002
{
1003
1
1002
}
1002
}
  0
ENDSEC
  0
SECTION
  2
OBJECTS
  0
DICTIONARY
  5
40c
100
AcDbDictionary
  3
ACAD_GROUP
350
40d
  3
ACAD_MLINESTYLE
350
40e
  0
DICTIONARY
  5
40d
102
{ACAD_REACTORS
330
40c
102
}
100
AcDbDictionary
  0
DICTIONARY
  5
40e
102
{ACAD_REACTORS
330
40c
102
}
100
AcDbDictionary
  3
STANDARD
350
40f
  0
MLINESTYLE
  5
40f
102
{ACAD_REACTORS
330
40e
102
}
100
AcDbMlineStyle
  2
STANDARD
 70
0
  3

 62
256
 51
9.0E+001
 52
9.0E+001
 71
2
 49
5.0E-001
 62
256
  6
BYLAYER
 49
-5.0E-001
 62
256
  6
BYLAYER
  0
ENDSEC
  0
EOF
